Andromeda - Archangel Chords & Tabs

 

Archangel Chords & Tabs

Andromeda Chords & Tabs

Version: 1 Type: Tab 0 ratings
1 star 2 stars 3 stars 4 stars 5 stars
comments

Archangel Tab

Song: "Archangel"
Artist: Andromeda
Album: Extension of the Wish

Tabbed by: David Comitini
email: madcap8@hotmail.com

Note: This is my first tab, pardon me for it being rather messy, there was
at least one or two parts that I couldnt figure out, those parts being in the
clean section... heh.

Tuning: DGCFAD

Main Rhythm                               
(Play the palm mutes 6x, 3 up and downstrokes)
D|-----------------------------------------||
A|----------------------------------------o||
F|-6-6-6-----------------------------------|| 3x
C|-6-6-6-----7-7-7-----4-4-4-----2-2-2-----||
G|-4-4-4--4--7-7-7-----4-4-4-----2-2-2----o||
D|-----------5-5-5--5--2-2-2--2--0-0-0--0--||
         .         .         .         .
(:30)
D|--------------|                                      \
A|--------------|                                       \
F|------------4-|                                        \
C|-4--5-----4-4-|                                         \
G|-4--5-----4-2-|	               			   \
D|-2--3-3-3-2---|                                           \
        . .                                                 / 2x
D|-14-------------------14----14-16-16b17r16p14h16-|       /
A|----17-15-14h15p14-------17----------------------|      /
F|-------------------16----------------------------|     /
C|-------------------------------------------------|    /
G|-------------------------------------------------|   /
D|-------------------------------------------------|  /

(:40)
D|----------------------------|
A|----------------------------|
F|----------------------------|
C|----------------------------|
G|----------14-16h17p16p14----|
D|-14-16-17-------------------|


D|----------------------------|--------------------------------|
A|----------------------------|--------------------------------|
F|----------------------------|--------------------------------|
C|-4-4------------------------|---4-4-------------------4-4----|
G|-4-4-------2-4h5p4p2--------|---4-4-------2-4h5p4p2h4-4-4----|
D|-2-2-2-4-5-----------5p4p2--|---2-2-2-4-5-------------2-2----|


D|-----------------------------------------------------|
A|-----------------------------------------------------|
F|-------------------------------------------1h2p1---1-|
C|-4-4-----------------------------------2-4-------4---|
G|-4-4-------2-4h5p4p2-------------2-4-5---------------|
D|-2-2-2-4-5-----------5p4p2-2-4-5---------------------|


D|-----------------------------------------------------------------------|
A|-----------------------------------------------------------------------|
F|----------------------------------------------------13h14p13-----13----|
C|-4-4------------------------------------------14-16----------16--------|
G|-4-4-------2-4h5p4p2----------------14-16-17---------------------------|
D|-2-2-2-4-5------------5p4p2-14-16-17-----------------------------------|


D|-----------------------------------------|
A|-----------------------------------------|
F|-------------------------13h14p13----13--|
C|-------------------14-16----------16-----|
G|----------14-16-17-----------------------|
D|-14-16-17--------------------------------|


(:58) Rhythm for Sweep Section
D|-------------------------------------|
A|-------------------------------------|
F|-6-6-6-------------------------------|
C|-6-6-6----7-7-7----4-4-4----2-2-2----|
G|-4-4-4-4--7-7-7----4-4-4----2-2-2----|
D|----------5-5-5-5--2-2-2-2--0-0-0-0--|

	NOTE: The following section uses major and minor arpeggio shapes
	over this progression (Bm, G, Em, D). So it is suggested that you
	use sweep picking instead of alternate picking. During the last
	chord, the arp should be sweeped over very fast. 

D|-------------12h16p12----------12h16p12-------------------------9h12p9---------9h12p9------------|
A|----------14----------14----14----------14-------------------10--------10---10--------10---------|
F|-------13----------------13----------------13--------------9--------------9--------------9-------|
C|----14----------------------------------------14--------11---------------------------------11----|
G|-16----------------------------------------------16--12---------------------------------------12-|
D|-------------------------------------------------------------------------------------------------|

[ Tab from: http://www.guitartabs.cc/tabs/a/andromeda/archangel_tab.html ]
D|-------------17h21p17----------17h21p17--------------------------16h19p16----------------|
A|----------19----------19----19----------19--------------------17----------17-------------|
F|-------18----------------18----------------18--------------16----------------16----------|
C|----19----------------------------------------19--------18----------------------18-------|
G|-21----------------------------------------------21--19----------------------------19----|
D|-----------------------------------------------------------------------------------------|


D|-------------16h19p16--------------------------16h19p16--------------|
A|----------17----------17--------------------17----------17-----------|
F|-------16----------------16--------------16-----------------16-------|
C|----18----------------------18--------18-----------------------18----|
G|-19----------------------------19--19-----------------------------19-|
D|---------------------------------------------------------------------|

(1:29) Rhythm For Main Theme
D|-------------------------|
A|-------------------------|
F|-6------4-9----6-----4-2-|
C|-6-7-7--4-9-9--6-7-7-4-2-|
G|-4-7-7--2-7-6--4-7-7-2-0-|
D|---5-5-----------5-5-----|

	NOTE: The part in parenthesis is played very fast.
Main Theme
D|----11-12----14p12----12-----11S12-12-(19-17-16-11-19-17-16-11)--|
A|-14-------12-------14-----14----------------------------------17-|
F|-----------------------------------------------------------------|
C|-----------------------------------------------------------------|
G|-----------------------------------------------------------------|
D|-----------------------------------------------------------------|
	(After this main theme, go back to the :40 second mark, and play that,
	then go into this next section)


	NOTE: I couldnt really get this part, my guess is that Reinoldz
	is using a 7-string... so this was the best I could do for the clean part.
	Then he started doing other stuff, so I kinda got lost... maybe I'll post
	in a later version... too much for now.

(2:11)	
D|------------------------------------------------------------|
A|---------5-------------5-------------5-------------5--------|
F|-------0---0---------0---0---------0---0---------0---0------|
C|-----4-------4-----4-------4-----4-------4-----4-------4----|
G|---4-------------4-------------4-------------4--------------|
D|-2-------------3-------------2-------------6----------------|


D|---------------------------------------------------0-------------0-----|
A|---------5-------------3-------------5---------------------------------|
F|-------0---0---------4---4---------6---6---------6---6---------6---6---|
C|-----4-------4-----5-------5-----7-------7-----9-------9-----9-------9-|
G|---4-------------5-------------7-------------9-------------9-----------|
D|-2-------------3-------------5-------------7-------------7-------------|

(3:36)
D|-----------------------------|---------------------------------------------------------|
A|-----------------------------|---------------------------------------------------------|
F|-----------------------------|-6-6-6-------6-6-6---------------------------------------|
C|-4-----4---5-------5-7-----9-|-6-6-6-7-7-7-6-6-6-7-7-7-4-4-4---2-2-2---4-4-4---2-2-2---|
G|-4-----4---5-------5-7-----9-|-4-4-4-7-7-7-4-4-4-7-7-7-4-4-4---2-2-2---4-4-4---2-2-2---|
D|-2-2-2-2-2-3-3-3-3-3-5-5-5-7-|-------5-5-5-------5-5-5-2-2-2-2-0-0-0-0-2-2-2-2-0-0-0-0-|
     . .   .   . . .     . .                                   .       .       .       .

(3:56)
D|------------------------------|
A|------------------------------|
F|-6-6-6------------------------|2x
C|-6-6-6-7-7-7--4-4-4---2-2-2---|
G|-4-4-4-7-7-7--4-4-4---2-2-2---|
D|-------5-5-5--2-2-2-2-0-0-0-0-|


D|-------------------------|
A|-------------------------|
F|-6------4-9----6-----4-2-|2x
C|-6-7-7--4-9-9--6-7-7-4-2-|
G|-4-7-7--2-7-6--4-7-7-2-0-|
D|---5-5-----------5-5-----|


D|---------------------------------------------------------|
A|---------------------------------------------------------|
F|-6-6-6-------6-6-6---------------------------------------|
C|-6-6-6-7-7-7-6-6-6-7-7-7-4-4-4---2-2-2---4-4-4---2-2-2---|
G|-4-4-4-7-7-7-4-4-4-7-7-7-4-4-4---2-2-2---4-4-4---2-2-2---|
D|-------5-5-5-------5-5-5-2-2-2-2-0-0-0-0-2-2-2-2-0-0-0-0-|
                                 .       .       .       .
D|-------------------------|
A|-------------------------|
F|-6------4-9----6-----4-2-|2x
C|-6-7-7--4-9-9--6-7-7-4-2-|
G|-4-7-7--2-7-6--4-7-7-2-0-|
D|---5-5-----------5-5-----|

Outro Rhythm
D|-----------------------------|
A|-----------------------------|
F|-6------------4-----2--------|
C|-6-----6------4-----2--------|
G|-4-4-4-3-3-3--2-2-2-0-0-0----|
D|-----------------------------|

	NOTE: The outro solo is in the key of Bm or Em, probably
	Bm just because it sounds more like it. I dont really believe
	in tabbing other peoples solos. The only help I can give you
	here is that Reinoldz is an awesome guitarist, just use alot of
	fast alternate picking, throw in some sweeps, and just keep it
	flowing. Keep it bluesy if you want, whatever... It's youre choice!
Comments