Androids - Do It With Maddona Chords & Tabs

 

Do It With Maddona Chords & Tabs

Androids Chords & Tabs

Version: 1 Type: Tab 0 ratings
1 star 2 stars 3 stars 4 stars 5 stars
comments

Do It With Maddona Tab

Tabbed By :weirules@hotmail.com

ok..ive never tabbed a song before so this sounds like it so..yeah...

this is just parts of the song because i cant be stuffed tabbing the whole song here goes:


. = Palm Mute

riff 1
e--------------------|
b--------------------|
g--------------------| play this throught the start. a couple of times
d--5-5-0-5--0--------|
a--5-5-0-5--0--------|
E--3-3-0-3--0--------|
       .    .

then theres the "when shes smiling for the camera....

e-------------|
b-------------|
g-------------|
d---5 5-------|
a---5-5-------|
E---3-3-5-7---|     

then play the first riff over and over until the chorus
        
then the cchorus i havent figured out yet...
[ Tab from: http://www.guitartabs.cc/tabs/a/androids/do_it_with_maddona_tab.html ]
pre verse
e--------------------|
b--------------------|
g--------------------| play this throught the start. a couple of times
d--5-5-0-5--0--------|
a--5-5-0-5--0--------|
E--3-3-0-3--0--------|
       .    .

verse
e--------------------------|
b--------------------------|
g-----5---3----------------|
d---5---5------------------|
a---5----------------------|
E---3----------------------|

then chorus...whichh i dont know

and the preverse has changed...then

verse
e--------------------------|
b--------------------------|
g-----5---3----------------|
d---5---5------------------|
a---5----------------------|
E---3----------------------|

aand i dont kno  the solo...and the rest i dont know either


---i know it's kinda pathetic...but at least i tried...
Comments