Andrew Wk - We Want Fun Chords & Tabs

 

We Want Fun Chords & Tabs

Andrew Wk Chords & Tabs

Version: 1 Type: Tab 1 rating
1 star 2 stars 3 stars 4 stars 5 stars
comments

We Want Fun Tab

Andrew WK - We Want Fun
from the JACKASS movie soundtrack 
-Standard Tuning
-Distortion
  X = Mute
BY STEVO

::INTRO::  after drums
---------------------------------------------------------
-12-12----11-11----9-9----7-7----5-5----4-4----2-2----7-7
---------------------------------------------------------
---------------------------------------------------------
---------------------------------------------------------
---------------------------------------------------------
[ Tab from: http://www.guitartabs.cc/tabs/a/andrew_wk/we_want_fun_tab.html ]
::VERSE::
----------------------------------------------------------------------------
----------------------------------------------------------------------------
----------------------------------------------------------------------------
-14---14---13---13---11---11---9---9---7---7---6---6---4---4---9---9--
-14---14---13---13---11---11---9---9---7---7---6---6---4---4---9---9--
-12---12---11---11----9----9---7---7---6---6---4---4---2---2---7---7--

-----------------------------------------
-----------------------------------------
-9-9-9-9---------------6-6-6-6-----------
-9-9-9-9--7-7-7-6-7----6-6-6-6-7-7-7-6-7-
-7-7-7-7--7-7-7-6-7----4-4-4-4-7-7-7-6-7-
----------5-5-5-4-5------------5-5-5-4-5-

::SOME OTHER PART::
--------------------------------------
--------------------------------------
--------------------------------------
-9-9-9--9-9-9--9-9-9--9-9-9-----------
-9-9-9--9-9-9--9-9-9--9-9-9-----------
-7-7-7--7-7-7--7-7-7--7-7-7-----------
 X X    X X    X X    X X
Comments