Andrew Wk - Party Hard Chords & Tabs

 

Party Hard Chords & Tabs

Andrew Wk Chords & Tabs

Version: 2 Type: Tab 1 rating
1 star 2 stars 3 stars 4 stars 5 stars
comments

Party Hard Tab

   
kk soory this might not be that good cuz im only an ameteur whos played less than a year! lol
well, here goes.
[ Tab from: http://www.guitartabs.cc/tabs/a/andrew_wk/party_hard_tab_ver_2.html ]
e|------------------------------------------------------------------ }
B|------------------------------------------------------------------ }
G|------------------------------------------------------------------ }
D|-5-7-2-2-2-2-2-2-2-2-2-2-2-2-2-2-2-2-2-2-2-2-2-2-2-2-2-2-2-2-2-2-2 }
A|-5-7-2-2-2-2-2-2-2-2-2-2-2-2-2-2-2-2-2-2-2-2-2-2-2-2-2-2-2-2-2-2-2 }
E|-3-5-0-0-0-0-0-0-0-0-0-0-0-0-0-0-0-0-0-0-0-0-0-0-0-0-0-0-0-0-0-0-0 }
                                                                     }x2
e|------------------------------------------------------------------ }
B|------------------------------------------------------------------ }
G|------------------------------------------------------------------ }
D|-6-6-6-2-2-2-2-2-7-7-7-2-2-2-2-2-9-9-9-2-2-2-2-2-13-14-14-14-14-14 }
A|-6-6-6-2-2-2-2-2-7-7-7-2-2-2-2-2-9-9-9-2-2-2-2-2-13-14-14-14-14-14 }
E|-4-4-4-0-0-0-0-0-5-5-5-0-0-0-0-0-7-7-7-0-0-0-0-0-11-12-12-12-12-12 }
(wait for keyboard ding x8)
e|------------------------------------------------------------------ }
B|------------------------------------------------------------------ }
G|------------------------------------------------------------------ }play
D|-2-2-2-2-2-9-7-7-7-7-6-6-6-6-4-4-4-4-4-11-9-9-9-9-9-13-14--------- }x4
A|-2-2-2-2-2-9-7-7-7-7-6-6-6-6-4-4-4-4-4-11-9-9-9-9-9-13-14--------- }
E|-0-0-0-0-0-7-5-5-5-5-4-4-4-4-2-2-2-2-2-9--7-7-7-7-7-11-12--------- }
 play these bits at the right times listen to the song youll see what
i mean. someone please find tyhe rest of it and the chorus plz!!!!!!!
then i can update this and it can be complete!

Enjoy.
Comments