Andrew Wk - Party Hard Chords & Tabs

 

Party Hard Chords & Tabs

Andrew Wk Chords & Tabs

Version: 1 Type: Tab 2 ratings
1 star 2 stars 3 stars 4 stars 5 stars
comments

Party Hard Tab

-------------------------------------------------------------------------------
			     PARTY HARD - ANDREW WK
-------------------------------------------------------------------------------

By: JAMES LOW whatisaturnip@yahoo.co.uk (THIS SONG WAS HARDER TO TAB THAN YOU 
                                                    MAY THINK!)

e|---------------------------------------------------------------------------|GTRS
B|---------------------------------------------------------------------------|1+2
G|---------------------------------------------------------------------------|PLAY
D|-2--2--2--2--2--2--2--2--2--2--2--2--2--2--2--2----------------------------|FOUR
A|-2--2--2--2--2--2--2--2--2--2--2--2--2--2--2--2----------------------------|TIMES
E|-0--0--0--0--0--0--0--0--0--0--0--0--0--0--0--0----------------------------|

e|---------------------------------------------------------------------------|
B|---------------------------------------------------------------------------|
G|---------------------------------------------------------------------------|
D|-2--2--2--2--2--2--2--2--2--2--2--2--2--2--2--2--2--2--2--2--2--2--2--2--9-|
A|-2--2--2--2--2--2--2--2--2--2--2--2--2--2--2--2--2--2--2--2--2--2--2--2--9-|GTR
E|-0--0--0--0--0--0--0--0--0--0--0--0--0--0--0--0--0--0--0--0--0--0--0--0--7-|1
                                                                              PLAY
e|---------------------------------------------------------------------------|TWICE
B|---------------------------------------------------------------------------|
G|---------------------------------------------------------------------------|
D|-9--9----7-----------------------------------------------------------------|
A|-9--9----7-----------------------------------------------------------------|
E|-7--7----5-----------------------------------------------------------------|

e|-------------------------------------------------------11-11-12---12-------|
B|-9-----------------10----------------12----------------X--X--X----X--------|
G|-x------9----------x------9----------x------9----------8--8--9----9--------|
D|-6------x----------7------x----------9------x------------------------------|
A|--------7-----------------7-----------------7------------------------------|
E|---------------------------------------------------------------------------|GTR
                                                                              2
e|-------------------------------------------------------14-14-16---12-------|PLAY
B|-9-----------------10----------------12----------------x--x--x----X--------|ONCE
G|-x------9----------x------9----------x------9----------11-11-13---9--------|
D|-6------x----------7------x----------9------x------------------------------|
A|--------7-----------------7-----------------7------------------------------|
E|---------------------------------------------------------------------------|

e|-12-----------------------------BOTH-GUITARS-------------------------------|
B|-x-GTR-2-------------------------------------------------------------------|
G|-9-------------------------------------------------------------------------|
D|-2-----------2--2--2--2--2----9----7--7--7----6--6--6----4--4--4--4--4-----|
A|-2-GTR-1-----2--2--2--2--2----9----7--7--7----6--6--6----4--4--4--4--4-----|
E|-0-----------0--0--0--0--0----7----5--5--5----4--4--4----2--2--2--2--2-----|
[ Tab from: http://www.guitartabs.cc/tabs/a/andrew_wk/party_hard_tab.html ]
e|--PLAY-1ST-TIME-AND-IN-VERSE-|---PLAY-2ND-TIME-----------------------------|
B|-----------------------------|---------------------------------------------|
G|-6----4--4--4--4--4----------|-6----4--4--9----9---------------------------|
D|-6----4--4--4--4--4----------|-6----4--4--9----9---------------------------|
A|-4----2--2--2--2--2--6--6--7-|-4----2--2--7----7---------------------------|
E|-----------------------------|---------------------------------------------|

e|---------------------------------------------------------------------------|
B|---------------------------------------------------------------------------|
G|---------------------------------------------------------------------------|
D|--------------------------------2------------------------------------2-----|
A|-7-----7--5-------5--3-------3--2-------5-----5--3-------3--2-----7--2-----|
E|----0----------0----------0-----0----------0----------0--------0-----0-----|

e|---------------------------------------------------------------------------|
B|---------------------------------------------------------------------------|
G|--------------------------------------------------------------------8--9---|
D|--------------------------------2-------7--7--7--9----9--9--9----9--8--9--9|
A|-3-----3--2-------2--0-------0--2-------7--7--7--9----9--9--9----9--6--7--9|
E|----0----------0----------0-----0-------5--5--5--7----7--7--7----7--------7|

e|---------------------------------------------------------------------------|
B|---------------------------------------------------------------------------|
G|---------------------------------------------------------------------------|
D|-2--2--2--2--2--2--2--2--7--7--7--6--6--7--7--7--2--2--2--2--2--2--2--2--7-|
A|-2--2--2--2--2--2--2--2--7--7--7--6--6--7--7--7--2--2--2--2--2--2--2--2--7-|
E|-0--0--0--0--0--0--0--0--5--5--5--4--4--5--5--5--0--0--0--0--0--0--0--0--5-|

e|---------------------------------------------------------------------------|
B|---------------------------------------------------------------------------|
G|----------7----------------------------------------------------------------|
D|-7--7--7--7----7----2--2--2--2--2--2--2--2--7--7--7--6--6--7--7--7--2--2--2|
A|-7--7--7--5----7----2--2--2--2--2--2--2--2--7--7--7--6--6--7--7--7--2--2--2|
E|-5--5--5-------5----0--0--0--0--0--0--0--0--5--5--5--4--4--5--5--5--0--0--0|

e|---------------------------------------------------------------------------|
B|---------------------------------------------------------------------------|
G|--------------------------9----8-------------------------------------------|
D|-2--2--2--2--2--4----9----9----8----2--2--2--7--7--7--6--7--2--2--2--7--7--|
A|-2--2--2--2--2--4----9----7----6----2--2--2--7--7--7--6--7--2--2--2--7--7--|
E|-0--0--0--0--0--2----7--------------0--0--0--5--5--5--4--5--0--0--0--5--5--|

e|---------------------------------------------------------------------------|
B|---------------------------------------------------------------------------|
G|-------------------------------------------9--9--9--8--9-------------------|
D|-7--6--7--2--2--2--7--7--7--6--7--9--9--9--9--9--9--8--9--2--2--2--7--7--7-|
A|-7--6--7--2--2--2--7--7--7--6--7--9--9--9--7--7--7--6--7--2--2--2--7--7--7-|
E|-5--4--5--0--0--0--5--5--5--4--5--7--7--7-----------------0--0--0--5--5--5-|

e|---------------------------------------------------------------------------|
B|---------------------------------------------------------------------------|
G|------------------------------------------------------------------9----8---|
D|-6--7--2--2--2--7--7--7--6--7--2--2--2--7--7--7--6--7--4--4--9----9----8---|
A|-6--7--2--2--2--7--7--7--6--7--2--2--2--7--7--7--6--7--4--4--9----7----6---|
E|-4--5--0--0--0--5--5--5--4--5--0--0--0--5--5--5--4--5--2--2--7-------------|

===============================================================================
Comments