Andrew W K - You Will Remember Tonight Chords & Tabs

 

You Will Remember Tonight Chords & Tabs

Andrew W K Chords & Tabs

Version: 1 Type: Tab 0 ratings
1 star 2 stars 3 stars 4 stars 5 stars
comments

You Will Remember Tonight Tab

Hi everyone, been doin AWK tabs for a while now. I see alot of people on here stole my 
tabbage ;-) No worries. There are a couple of new songs on www.awkworld. One of them 
YOU WILL REMEMBER TONIGHT, and without further a-doo. You will remember..........tonight.

_Piano Intro_ C

YOU WILL REMEMBER TONIGHT!!

Guitar 1
E-------------------------------------------------------|
B-------------------------------------------------------|
G-----------------10--------------12--------------------|
D--10-------------10-----x 16-----12--x 16--------------|
A--10---x 16------8---------------10--------------------|
E---8---------------------------------------------------|

Guitar 2
E-------------------------------------------------------|
B-------------------------------------------------------|
G--5----------------------------------------------------|
D--5---x 16------3------------5-------------------------|
A--3-------------3---x 16-----5----x 16-----------------|
E----------------1------------3-------------------------|

Both Guitars
E-----------------------------------------|
B-----------------------------------------|
G-----------------------------------------|
D---10------9--10---9--10-----------------|
A---10------9--10---9--10-----------------|
E----8------7--8----7---8-----------------|

Verse (1st, 2nd, 3rd Measures)
E-----------------------------------------|
B-----------------------------------------|
G-10----9----7----5-----------------------|
D--x----x----x----x-------5---------------|
A--8----7----5----3-------5---x16---------|
E-------------------------3---------------|

Verse (2nd, 3rd Measures)
E------------------------------------------------------------------|
B------------------------------------------------------------------|
G--10----------9----------7--------5-------------------------------|
D--10---x 4----9---x4-----7--x 4---5--x 4------5-------------------|
A---8----------7----------5--------3-----------5---x 16------------|
E----------------------------------------------3-------------------|

On the 3rd measure, only play the 3-5-5 x4

Chorus x2
E-----------------------------------------------|
B-----------------------------------------------|
G----------------10--------12-------------------|
D---10-----------10--x8----12----x 8------------|
A---10--x 16-----8---------10-------------------|
E---8-------------------------------------------|

Chorus x1
Guitar 1
E-------------------------------------------------|
B-------------------------------------------------|
G----------------10------------12-----------------|
D---10-----------10---x 16-----12---x 16----------|
A---10--x 16-----8-------------10-----------------|
E----8--------------------------------------------|
[ Tab from: http://www.guitartabs.cc/tabs/a/andrew_w_k/you_will_remember_tonight_tab.html ]
Guitar 2 x1 x1
E--------------------------------------------|--------------------------|
B--------------------------------------------|--------------------------|
G--------------------------------------------|--------------------------|
D------------17-15-14-12-10-12--------------------17-15-14-12-10-12-14--|
A-------15----------------------10--------------15----------------------|
E--15-----------------------------------------15------------------------|

x1
E-------------------------------------------------|
B-------------------------------------------------|
G--------------------------------17-----17--------|
D----------17-15-14-15-17------------17-----------|
A------15-----------------------------------------|
E--15---------------------------------------------|

Pre Verse/Bridge
E-----------------------------------|---------------------------|
B-----------------------------------|---------------------------|
G-----------------------------------|---------------------------|
D-----------------------------------|---3--------5--------------|
A-----------------------------------|---3--x8----5--x8----------|
E--8-10-12-8-13-12-13-12-----------|----1--------3--------------|

E---------------------------------------------|-------------------------|
B---------------------------------------------|-------------------------|
G---------------------------------------------|-------------------------|
D-----------------------------------|---3--------5----------------------|
A------------12-10-12-15-------------|--3--x8----5--x 8-----------------|
E--8-10-12-8----------------------------1--------3----------------------|

E-------------------------------------------|
B-------------------------------------------|
G-------------------------------------------|
D-------------------------------------------|
A-------------12-10-12-14-------------------|
E--8-10-12-8--------------------------------|

Verse 1st measure.........2nd measure.............

3rd measure x1
E-------------------------------------------------------|
B-------------------------------------------------------|
G-10------12-------14--------16-------17----------------|
D--x--x4---x--x4---x--x4-----x--x4----x--x4-------------|
A--8------10-------12--------14-------15----------------|
E-------------------------------------------------------|

Repeat etc.

(Ending.......And Most Awesome Part In Any AWK song)

Play severy times over again.
E------------------------------------------------------------------------|
B------------------------------------------------------------------------|
G------------------------------------------------------------------------|
D------------------------------------------------------------------------|
A------------------------------------------------------------------------|
E----7-8----3-3---8-7--11-11-12-12/14\12-12-14-15-15-14-12-17--17-19-20--|


Questions Comments  Redhouse1985@yahoo.com     the Nosebleeds
Comments