Andrew W K - We Want Fun Chords & Tabs

 

We Want Fun Chords & Tabs

Andrew W K Chords & Tabs

Version: 1 Type: Bass Tab 0 ratings
1 star 2 stars 3 stars 4 stars 5 stars
comments

We Want Fun Bass Tab

   
Andrew WK - We Want Fun
Submitted By: BassPlayer400
EMail: gbeney@hotmail.com

This might not be right, as it is the first song I've tabbed.  Please, 
If you see any errors, send them to me, I want to get this song right.

Standard E A D G tuning

Intro

G---------------------------------------------|
D---------------------------------------------|   x4
A-77-55-44-22------------22-------------------|
E----------------77-55-44---------------------|

Pre Verse

G---------------------------------------------|
D---------------------------------------------|  x2
A---------------------------------------------|
E-777-555-3-777-555-3-777-555-3-55/3-55/3-----|

Verse
[ Tab from: http://www.guitartabs.cc/tabs/a/andrew_w_k/we_want_fun_btab.html ]
G---------------------------------------------|
D---------------------------------------------|   x4
A-77-55-44-22------------22-------------------|
E----------------77-55-44---------------------|

Pre Chorus

G---------------------------------------------|
D---------------------------------------------|   x4
A-7~----5~-----3~-----------------------------|
E-------------------7~---5~----3~-------------|

G---------------------------------------------|
D---------------------------------------------|  x 2
A---------------------------------------------|
E-3~---55/3----55/3---------------------------|

Chorus

G---------------------------------------------|
D---------------------------------------------|  x2
A---------------------------------------------|
E-777-555-3-777-555-3-777-555-3--55/3-55/3--3~-0~-0~--|

then:
Verse x4
Pre chorus x2
Chorus x 2 
*Rest*
Verse, end on E-0-0~

Thats how I play it, but if you see any errors please send me your 
corrections at gbeney@hotmail.com.
Comments