Andrew W K - She Is Beautiful Chords & Tabs

 

She Is Beautiful Chords & Tabs

Andrew W K Chords & Tabs

Version: 5 Type: Tab 0 ratings
1 star 2 stars 3 stars 4 stars 5 stars
comments

She Is Beautiful Tab

   
Andrew W.K - She Is Beautiful

Artist's: Andrew W.K
Song: She Is Beautiful
Album: I Get Wet
Composed By: Scott Pocock (Extremely_Rock)


Intro Solo
e---------------------------------|------------------------------------|
B---------------------------------|------------------------------------|
G---------------------------------|------------------------------------|
D-12-5-0-12-0-4-0-12-0-11-0-11-12-|-0-7-12-0-7-0-12-5-0-5-0-11-0-11-12-|
A---------------------------------|------------------------------------|
E---------------------------------|------------------------------------|

|---------------------------------------|-----------------------------------
|---------------------------------------|-----------------------------------
|---------------------------------------|-----------------------------------
|-0-7-12-0-5-0-12-0-3-0-12-0-11-0-11-12-|-0-7-12-0-7-0-12-5-0-5-0-14-0-16-12
|---------------------------------------|-----------------------------------
|---------------------------------------|-----------------------------------

Intro x4
e------------------|
B------------------|
G------------------|
D-12-12---12-12-12-|
A------------------|
E------------------|

|-----------------------------------------------------|
|-----------------------------------------------------|
|-----------------------------------------------------|
|-5-5555-5-0---7-7h9-11/12--5-5555-5-0----------------|x2
|-5-5555-5-0---7-7h9-11/12--5-5555-5-0--5-0-4-5-5\7-5-|
|-5-5555-5-0---7-7h9-11/12--5-5555-5-0----------------|

|------------------------------------------------------------|
|------------------------------------------------------------|
|------------------------------------------------------------|
|-55555-0-----7-7h9-11/12-12\5--5-5555-5-0-------------------|
|-55555-0-0-0-7-7h9-11/12-12\5--5-5555-5-0-0-0-5-0-4-5-5\7-5-|
|-55555-0-0-0-7-7h9-11/12-12\5--5-5555-5-0-0-0---------------|

|---------------------------------------------------------------|
|---------------------------------------------------------------|
|---------------------------------------------------------------|
|-5-5555-5-0-----7-7h9-11/12-12\5--5-5555-5-0-------------------|
|-5-5555-5-0-0-0-7-7h9-11/12-12\5--5-5555-5-0-0-0-5-0-4-5-5\7-5-|
|-5-5555-5-0-0-0-7-7h9-11/12-12\5--5-5555-5-0-0-0---------------|

Verse 
|--------------|
|--------------|
|--------------|
|--------------|
|-0-0-0-0-0----|
|-0-0-0-0-0----|

Verse 2 (When Singing Starts)
|---------------------------------------------------------------------|
|---------------------------------------------------------------------|
|---------------------------------------------------------------------|
|---------------------------------------------------------------------|
|-11-12-00-11-12-00-11-12-00-11-12-00-7-5-55-5-7-77-7-7-7-9-5-5-------|
|-11-12-00-11-12-00-11-12-00-11-12-00-7-5-55-5-7-77-------------7-5-0-|

Pre-Chorus('The Girls, Too Young...')
|-------------------------------------------|
|-------------------------------------------|
|-------------7-------7-7-7-----------------|
|-4-5-5-5-5-7-7-4-5-0-7-7-7-0-7-7-0-0-5-7-0-|
|-4-5-5-5-5-7-5-4-5-0-5-5-5-0-7-7-0-0-5-7-0-|
|-4-5-5-5-5-7---4-5-0-------0-7-7-0-0-5-7-0-|

Chorus x2
|-----------------------------------------|
|-----------------------------------------|
|-----------------------------------------|
|---------------------------7-5-5555-5-12-|
|---------------------4-5---7-5-5555-5-12-|
|-5-0-5-4-0-4-0-3-2-0-----0-7-5-5555-5-12-|
[ Tab from: http://www.guitartabs.cc/tabs/a/andrew_w_k/she_is_beautiful_tab_ver_5.html ]
Verse 
|--------------|
|--------------|
|--------------|
|--------------|
|-0-0-0-0-0----|
|-0-0-0-0-0----|

Verse 2 (Until Singing Starts)
|---------------------------------------------------------------------|
|---------------------------------------------------------------------|
|---------------------------------------------------------------------|
|---------------------------------------------------------------------|
|-11-12-00-11-12-00-11-12-00-11-12-00-7-5-55-5-7-77-7-7-7-9-5-5-------|
|-11-12-00-11-12-00-11-12-00-11-12-00-7-5-55-5-7-77-------------7-5-0-|

Pre-Chorus('The Girls, Too Young...')
|-------------------------------------------|
|-------------------------------------------|
|-------------7-------7-7-7-----------------|
|-4-5-5-5-5-7-7-4-5-0-7-7-7-0-7-7-0-0-5-7-0-|
|-4-5-5-5-5-7-5-4-5-0-5-5-5-0-7-7-0-0-5-7-0-|
|-4-5-5-5-5-7---4-5-0-------0-7-7-0-0-5-7-0-|

 (Know I'll never know ya' I look at your face) 
|------------------------------------------------------------------------
|------------------------------------------------------------------------
|------------------------------------------------------------------------
|-4h5-5-5-4h5-5-5--7-7-7-12--0-5-7-0----12-12-11-12--12\5-*-5------------
|-4h5-5-5-4h5-5-5--7-7-7-12--0-5-7-0----12-12-11-12--12\5-*-5--------5---
|-4h5-5-5-4h5-5-5--7-7-7-12--0-5-7-0----12-12-11-12--12\5-*-5--5-4-5---5-

----------------------------------------------|
----------------------------------------------|
----------------------------------------------|
-4h5-5-5-4h5-5-5--7-7-7-12--0-5-7-0--12-12-12-|
-4h5-5-5-4h5-5-5--7-7-7-12--0-5-7-0--12-12-12-|
-4h5-5-5-4h5-5-5--7-7-7-12--0-5-7-0--12-12-12-|

Chorus x2
|-----------------------------------------|
|-----------------------------------------|
|-----------------------------------------|
|---------------------------7-5-5555-5-12-|
|---------------------4-5---7-5-5555-5-12-|
|-5-0-5-4-0-4-0-3-2-0-----0-7-5-5555-5-12-|

(I ain't got nothing to lose...)
|--------------------------|--------------------------------|
|--------------------------|--------------------------------|
|-----------------7--------|--------------------------------|
|-0-----5----7----7----5-7-|-0----7-0-00-5----7-----5-5-7-7-|
|-0-----5----7----5----5-7-|-0----7-0-00-5----7-----5-5-7-7-|
|-0-----5----7---------5-7-|-0----7-0-00-5----7-----5-5-7-7-|

Verse (When Singing Stops)
|-----------------------------------------------------|
|-----------------------------------------------------|
|-----------------------------------------------------|
|-5-5555-5-0---7-7h9-11/12--5-5555-5-0----------------|
|-5-5555-5-0---7-7h9-11/12--5-5555-5-0--5-0-4-5-5\7-5-|
|-5-5555-5-0---7-7h9-11/12--5-5555-5-0----------------|

|---------------------------------------------------------------|
|---------------------------------------------------------------|
|---------------------------------------------------------------|
|-5-5555-5-0-----7-7h9-11/12-12\5--5-5555-5-0-------------------|
|-5-5555-5-0-0-0-7-7h9-11/12-12\5--5-5555-5-0-0-0-5-0-4-5-5\7-5-|
|-5-5555-5-0-0-0-7-7h9-11/12-12\5--5-5555-5-0-0-0---------------|

Chorus x4
|-----------------------------------------|
|-----------------------------------------|
|-----------------------------------------|
|---------------------------7-5-5555-5-12-|
|---------------------4-5---7-5-5555-5-12-|
|-5-0-5-4-0-4-0-3-2-0-----0-7-5-5555-5-12-|


(I ain't got nothing to lose...)
|--------------|
|--------------|
|--------------|
|-7-5-555-5-12-|
|-7-5-555-5-12-|
|-7-5-555-5-12-|
Comments