Andrew W K - She Is Beautiful Chords & Tabs

 

She Is Beautiful Chords & Tabs

Andrew W K Chords & Tabs

Version: 3 Type: Tab 0 ratings
1 star 2 stars 3 stars 4 stars 5 stars
comments

She Is Beautiful Tab

   
Andrew W. K.- She is Beautiful
Album - I Get Wet

Tab by Daniel Frampton


Intro: (# = tremelo picking on the A5)

(through the into the backround guitar is playing high E5 I think)

     A5     E5(low)  B5    E5(high)
E---------------------------------
B---------------------------------
G--------------------------9------
D-#7-7777-7--2-----9-9-9-9-9------
A-#7-7777-7--2-----9-9-9-9-7------
E-#5-5555-5--0-----7-7-7-7-0------
 
1st riff:
    A5     E5(low)  B5    E5(high)
E----------------------------------
B----------------------------------
G----------------------------------
D-#7-7777-7--2---------------------
A-#7-7777-7--2-----6-6-7--7/9-7----
E-#5-5555-5--0------7--------------

2nd riff:
     A5     E5(low)  B5    E5(high)
E----------------------------------
B----------------------------------
G----------------------------------
D-#7-7777-7--2---------------------
A-#7-7777-7--2-----6-9-7-----------
E-#5-5555-5--0------7--------------

(X = palm mute) 
E----------------------------------
B----------------------------------
G-X999999999999999999999999999-----
D-X999999999999999999999999999-----
A-X777777777777777777777777777-----
E-X00000000000000000000000000------

Verse: ( a/b = slide up from a to b)

  E5                               B5A5 A5B5    E5
I never knew girls existed like you
E----------------------------------------------------------------
B----------------------------------------------------------------
G--9-9-------9-9----9-9------9-9--------------9-9-9-9-9-9--------
D--9-9-------9-9----9-9------9-9----9-7--7-9-*6-6-6-6-6-9--------
A--6/7-------6/7----6/7------6/7----9-7--7-9------------7--------
E-----------------------------------7-5--5-7---------------------

*3rd lead riff: E-----------
           B-----------
           G-----------
           D-5/6-6666--
           A---------7-
           E-----------
(repeat) 
But now that I do I'd really like to get to know you 
E----------------------------------------------------------------
B----------------------------------------------------------------
G--9-9-------9-9----9-9------9-9--------------9-9-9-9-9-9--------
D--9-9-------9-9----9-9------9-9----9-7--7-9-*6-6-6-6-6-9--------
A--6/7-------6/7----6/7------6/7----9-7--7-9------------7--------
E-----------------------------------7-5--5-7---------------------
[ Tab from: http://www.guitartabs.cc/tabs/a/andrew_w_k/she_is_beautiful_tab_ver_3.html ]
    A5                          B5 
The girl's too young She don't need any better 
    E5                             B5
It's all coming back I can feel it 
    A5                          B5 
The girl's too young She don't need any better 
    E5                             B5
It's all coming back I can feel it 
    
Chorus: 
 A5         G5
She is beautiful
 F#5        E5(low)    B5 A5  B5 E5(high)  
She is beautiful
 A5         G5
She is beautiful
 F#5        E5(low)    B5 A5    
She is beautiful
B5           E5(high)              
The girl is beautiful 

Palm mute E5(high) between chorus & verse

Verse: (same as verse 1)

       Eb/E5     Eb/E5     Eb/E5        Eb/E5       B5 A5  A5 B5  E5(high)
You're giving me rules and hints from all sides
       Eb/E5     Eb/E5     Eb/E5        Eb/E5       B5 A5  A5 B5  E5(high)
And when you hit my back,  I rub my eyes 

    A5                          B5 
The girl's too young She don't need any better 
    E5                             B5
It's all coming back I can feel it 
    A5                          B5 
The girl's too young She don't need any better 
    E5                             B5
It's all coming back I can feel it 
    A5              
And though I never know you 
    B5        Eb/E5
I look at your face.
    E5 
To tell you that I love you 
         A5
Don't know what to say
    A5                        B5
Give everything I got to the beautiful girl 
    E5                               A5
The only thing I live for in the whole wide world 

Chorus:

Bridge:

   E5
I ain't got nothing to lose (Nothing to lose) 
           A5            A5
Going to throw it away and talk to you 
           B5        
She looks good (She looks good) 
           B5
And it's true  (And it's true)
    E5 
The girl is beautiful 
    E5
She is beautiful 

then Chorus (with a little "NA nana na na nana")/Bridge&bridge


Hope this tab works out for you,
It's my first one and it's kind of a pain to do, so If it's good let me know
and I might light up some more...

email me @ Daniel_Frampton@Canada.com
Comments