Andrew W K - She Is Beautiful Chords & Tabs

 

She Is Beautiful Chords & Tabs

Andrew W K Chords & Tabs

Version: 1 Type: Bass Tab 0 ratings
1 star 2 stars 3 stars 4 stars 5 stars
comments

She Is Beautiful Bass Tab

--------------------------------------------------------------------------------
                         She Is Beautiful - Andrew W.K.
--------------------------------------------------------------------------------

Artist: Andrew W.K.
Song Title: She is Beautiful
Off The Albulm: I Get Wet
Tabbed by: Zero is great man
Tunning: Standard: EADG

Intro: [Guitar Plays intro, the Rhythem guitar, on the Third time]
G|-----------------------------------------------|
D|-----------------------------------------------|
A|---------5----------5----------5--5-5-5-5--5-5-|
E|-3-3-3-3----5-5-5-5----3-3-3-3-----------------|

Verse: "I never knew girls existed like you...."
G|----------------------------------------------------------|
D|------------------------------------------2/4-4-4-4-4\2-0-|
A|-5-5-5--5-5-5--5-5-5--5-5-5-------------------------------|
D|-----------------------------5-5\3-3/5-5------------------|
                     **   **
[ Tab from: http://www.guitartabs.cc/tabs/a/andrew_w_k/she_is_beautiful_btab.html ]
Pre-Chorus: "The girls too young she won't need anything..."
G|-----------------------------------------------------------------|
D|-----------------------------------------------------------------| x2
A|---------------------------------5-5-5-5-5-5-5-5-5-5-5-5-5-5-5-5-|
E|-3-3-3-3-3-3-3-3--5-5-5-5-5-5-5----------------------------------|

Chorus: "She is beautiful, she is beautiful."
G|------------------------------------|
D|------------------------------------|
A|-----------------5----------5-5-5-5-|
E|-3-3-2-2-0-0-0-0----3-3-5-5---------|

Bridge part 1: "I know I got nothing to lose..."
G|------------------------------------------------------------------|
D|------------------------------------------------------------------|
A|-5-5-5-5-5-5-5-5-5-5-5-5-5-5-5-5----------------------------------|
E|----------------------------------3-3-3-3-3-3-3-3-3-3-3-3-3-3-3-3-|

Bridge part 2:"...She looks good, and it's true..."
G|------------------------------------------------------------------|
D|------------------------------------------------------------------|
A|----------------------------------5-5-5-5-5-5-5-5-5-5-5-5-5-5-5-5-|
E|-5-5-5-5-5-5-5-5-5-5-5-5-5-5-5-5----------------------------------|

| / = Slide Up
| \ = Slide Down

================================================================================
Comments