Andrew W K - Ready To Die Chords & Tabs

 

Ready To Die Chords & Tabs

Andrew W K Chords & Tabs

Version: 2 Type: Tab 0 ratings
1 star 2 stars 3 stars 4 stars 5 stars
comments

Ready To Die Tab

   
-------------------------------------------------------------------------------
			     Ready To Die - Andrew WK
-------------------------------------------------------------------------------

Song:      Ready To Die
Artist:    Andrew WK
Album:	   I Get Wet
Tabbed by: Jan Van Gulck
Email:     Janvangulck@hotmail.com


Tuning: D A D G B e


Intro: (00:00)

(Actually this is played on a keyboard but it sounds nice
 with 2 guitars playing)

Guitar 1:

repeat 2X

|Clean|


e|-10----------------9--10-------------------------------|
B|----10-7--10-7--7----------------8--7--5---10-10-------|
G|---------------------------7--7------------------6--7--|
D|-------------------------------------------------------|
A|-------------------------------------------------------|
D|-------------------------------------------------------|


Guitar 2:

|Clean|

repeat 2X

e|-------------------------------------------------------|
B|-------------------------------------------------------|
G|-7--2--7--7--7--7--2--7----0-----0--0--2---2--2--6--7--|
D|-------------------------------------------------------|
A|-------------------------------------------------------|
D|-------------------------------------------------------|




Interlude: (00:10)



Guitar 1:

|Clean and Sharp|

repeat 4X

e|-10----------------9--10-------------------------------|
B|----10-7--10-7--7----------------8--7--5---10-10-------|
G|---------------------------7--7------------------6--7--|
D|-------------------------------------------------------|
A|-------------------------------------------------------|
D|-------------------------------------------------------|


Guitar 2:

|Heavy Distortion|

repeat 4X

e|-------------------------------------------------------|
B|-------------------------------------------------------|
G|-7-----7-----7--7-----7--------------------------6--7--|
D|-7--7--7-----7--7--7--7----------5--5--7---7--7--6--7--|
A|-5--7--5-----5--5--7--5----------5--5--7---7--7--4--5--|
D|----7--------------7-------------5--5--7---7--7--------|





Verse 1: (00:30)

Guitar 1:

|Clean|

e|-------------------------------------14-14-12-12-10-10-9-9-5-|
B|-------------------------------------------------------------|
G|-------------------------------------------------------------|
D|-------------------------------------------------------------|
A|-------------------------------------------------------------|
D|-------------------------------------------------------------|

|Heavy Distortion|

e|-------------------------------------------------------------|
B|-------------------------------------------------------------|
G|---------------------------------7------------------7---7----|
D|-0-----2-----4-----5---5-7---7---7----------5---7---7-7-7----|
A|-0-----2-----4-----5---5-7---7---5----------5---7---5-7-5----|
D|-0-----2-----4-----5---5-7---7--------------5---7-----7------|




Guitar 2:

|Distortion|

e|-------------------------------------------------------------|
B|-------------------------------------------------------------|
G|-2---2-4---4-5---5-7---7-------7---7-------------------------|
D|-2---2-4---4-5---5-7---7-5---5-7---7-7---------------------7-|
A|-0---0-2---2-3---3-5---5-5---5-5---5-7---------------------7-|
D|-------------------------5---5-------7---------------------7-|

  \ - play very silent -/


|Heavy Distortion|

e|-------------------------------------------------------------|
B|-------------------------------------------------------------|
G|---------------------------------7------------------7---7----|
D|-0-----2-----4-----5---5-7---7---7----------5---7---7-7-7----|
A|-0-----2-----4-----5---5-7---7---5----------5---7---5-7-5----|
D|-0-----2-----4-----5---5-7---7--------------5---7-----7------|



Chorus: (00:51)


Guitar 1:

|Clean|

e|-10----------10--12--15----14-12-|-10---------10--12--15----14-12-|
B|-------10------------------------|-------10-----------------------|
G|---------------------------------|--------------------------------|
D|---------------------------------|--------------------------------|
A|---------------------------------|--------------------------------|
D|---------------------------------|--------------------------------|

e|-10----12----15--14--12----15-17-|-10-----------------------------|
B|---------------------------------|-------10---11--10--8-----------|
G|---------------------------------|--------------------------------|
D|---------------------------------|--------------------------5--7--|
A|---------------------------------|--------------------------5--7--|
D|---------------------------------|--------------------------5--7--|


                       
Guitar 2:                                                              
                                                                     
|Heavy Distortion|                                                    
                                                                        
e|---------------------------------|--------------------------------|
B|---------------------------------|--------------------------------|
G|-7-----------7-------------------|-7----------7-------------------|
D|-7-----7-----7---7---5-----5--7--|-7-----7----7---7---5-----5--7--|
A|-5-----7-----5---7---5-----5--7--|-5-----7----7---7---5-----5--7--|
D|-------7---------7---5-----5--7--|-------7--------7---5-----5--7--|

e|---------------------------------|--------------------------------|
B|---------------------------------|--------------------------------|
G|-7-------------------------------|-7------------------------------|
D|-7-----7-----5---4---2-----5--7--|-7-----7----8---7---5\----5--7--|
A|-5-----7-----5---4---2-----5--7--|-5-----7----8---7---5\----5--7--|
D|-------7-----5---4---2-----5--7--|-------7----8---7---5\----5--7--|




Interlude: (01:11)



Guitar 1:

|Clean and Sharp|

repeat 4X

e|-10----------------9--10-------------------------------|
B|----10-7--10-7--7----------------8--7--5---10-10-------|
G|---------------------------7--7------------------6--7--|
D|-------------------------------------------------------|
A|-------------------------------------------------------|
D|-------------------------------------------------------|


Guitar 2:

|Heavy Distortion|

repeat 4X

e|-------------------------------------------------------|
B|-------------------------------------------------------|
G|-7-----7-----7--7-----7--------------------------6--7--|
D|-7--7--7-----7--7--7--7----------5--5--7---7--7--6--7--|
A|-5--7--5-----5--5--7--5----------5--5--7---7--7--4--5--|
D|----7--------------7-------------5--5--7---7--7--------|




Verse 2: (01:32)


Guitar 1:

|Clean|
[ Tab from: http://www.guitartabs.cc/tabs/a/andrew_w_k/ready_to_die_tab_ver_2.html ]
e|-10---10-12---12-14---14-15---15-17---17-15---15-17----17-14-|
B|-------------------------------------------------------------|
G|-------------------------------------------------------------|
D|-------------------------------------------------------------|
A|-------------------------------------------------------------|
D|-------------------------------------------------------------|

|Heavy Distortion|

e|------------------------------------------------------------|
B|------------------------------------------------------------|
G|-----------------------------------------7-----------7---7--|
D|-0-------2-------4----4--5-------7---7---7----5--7---7-7-7--|
A|-0-------2-------4----4--5-------7---7---5----5--7---5-7-5--|
D|-0-------2-------4----4--5-------7---7--------5--7-----7----|




Guitar 2:

|Clean|

e|-------------------------------------------------------------|
B|-------------------------------------------------------------|
G|-------------------------------------------------------------|
D|-0----0--2----2--4----4--5----5--7----7--5----5--7-----7-12--|
A|-0----0--2----2--4----4--5----5--7----7--5----5--7-----7-12--|
D|-0----0--2----2--4----4--5----5--7----7--5----5--7-----7-12--|

  \ ------------------ play very silent ---------------------/

|Heavy Distortion|

e|------------------------------------------------------------|
B|------------------------------------------------------------|
G|-----------------------------------------7-----------7---7--|
D|-0-------2-------4----4--5-------7---7---7----5--7---7-7-7--|
A|-0-------2-------4----4--5-------7---7---5----5--7---5-7-5--|
D|-0-------2-------4----4--5-------7---7--------5--7-----7----|





Chorus: (01:52)


Guitar 1:

|Clean|

e|-10---------10--12--15----14-12-|-10---------10--12--15----14-12-|
B|-------10-----------------------|-------10-----------------------|
G|--------------------------------|--------------------------------|
D|--------------------------------|--------------------------------|
A|--------------------------------|--------------------------------|
D|--------------------------------|--------------------------------|

e|-10----12---15--14--12----15-17-|-10---------10------------------|
B|--------------------------------|-------10-------10--8-----8--10-|
G|--------------------------------|--------------------------------|
D|--------------------------------|--------------------------------|
A|--------------------------------|--------------------------------|
D|--------------------------------|--------------------------------|

e|-10-----------------------11-11-|-10-----------------------11-11-|
B|-------10---11--10--8-----------|-------10---11--10--8-----------|
G|--------------------------------|--------------------------------|
D|--------------------------------|--------------------------------|
A|--------------------------------|--------------------------------|
D|--------------------------------|--------------------------------|

e|-10-----------------------11-11-|-10--12--15-15-15--14-12-10--10-|
B|-------10---11--10--8-----------|---------------------------10---|
G|--------------------------------|--------------------------------|
D|--------------------------------|--------------------------------|
A|--------------------------------|--------------------------------|
D|--------------------------------|--------------------------------|


                       
Guitar 2:                                                              
                                                                     
|Heavy Distortion|                                                    
                                                                        
e|---------------------------------|--------------------------------|
B|---------------------------------|--------------------------------|
G|-7-----------7-------------------|-7----------7-------------------|
D|-7-----7-----7---7---5-----5--7--|-7-----7----7---7---5-----5--7--|
A|-5-----7-----5---7---5-----5--7--|-5-----7----7---7---5-----5--7--|
D|-------7---------7---5-----5--7--|-------7--------7---5-----5--7--|

e|---------------------------------|--------------------------------|
B|---------------------------------|--------------------------------|
G|-7-------------------------------|-7--------------7---------------|
D|-7-----7-----5---4---2-----5--7--|-7-----7--------7---7---5----7--|
A|-5-----7-----5---4---2-----5--7--|-5-----7--------5---7---5----7--|
D|-------7-----5---4---2-----5--7--|-------7------------7---5----7--|



e|--------------------------------|--------------------------------|
B|--------------------------------|--------------------------------|
G|-7------------------------8--8--|-7------------------------8--8--|
D|-7-----7----8---7---5-----8--8--|-7-----7----8---7---5-----8--8--|
A|-5-----7----8---7---5-----6--6--|-5-----7----8---7---5-----6--6--|
D|-------7----8---7---5-----------|-------7----8---7---5-----------|


e|--------------------------------|--------------------------------|
B|--------------------------------|--------------------------------|
G|-7------------------------8--8--|-7-----9----12---11--9--7-----7-|
D|-7-----7----8---7---5-----8--8--|-7-----9----12---11--9--7--7--7-|
A|-5-----7----8---7---5-----6--6--|-5-----7----10---9---7--5--7--5-|
D|-------7----8---7---5-----------|---------------------------7----|






Interlude: (02:33)



Guitar 1:

|Clean and Sharp|

repeat 4X

e|-10----------------9--10-------------------------------|
B|----10-7--10-7--7----------------8--7--5---10-10-------|
G|-------------------------------------------------6--7--|
D|-------------------------------------------------------|
A|-------------------------------------------------------|
D|-------------------------------------------------------|


Guitar 2:

|Heavy Distortion|

repeat 4X

e|-------------------------------------------------------|
B|-------------------------------------------------------|
G|-7-----7-----7--7-----7--------------------------6--7--|
D|-7--7--7-----7--7--7--7----------5--5--7---7--7--6--7--|
A|-5--7--5-----5--5--7--5----------5--5--7---7--7--4--5--|
D|----7--------------7-------------5--5--7---7--7--------|





| /  slide up
| \  slide down
| ~  vibrato
| +  harmonic
| x  Mute note

===============================================================================

Intro


Interlude


Verse 1:

This is your time to pay, 
This is your judgement day, 
We made a sacrifice, 
And now we get to take your life. 

We shoot without a gun, 
We'll take on anyone, 
It's really nothing new, 
It's just a thing we like to do. 


Chorus:

You better get ready to die, 
You better get ready to kill, 
You better get ready to run, 
Cause here we come, 
You better get ready to die! 


Interlude


Verse 2:

Your life is over now, 
Your life is running out, 
When your time is at an end, 
Then it's time to kill again, 
We cut without a knife, 
We live in black and white, 
Your just a parasite, 
Now close your eyes and say good-night. 



Chorus:

You better get ready to die, 
You better get ready to kill, 
You better get ready to run, 
Cause here we come, 
You better get ready to die! 
Get ready to die! 
Get ready to die!


Interlude
Comments