Andrew W K - Party Hard Chords & Tabs

 

Party Hard Chords & Tabs

Andrew W K Chords & Tabs

Version: 5 Type: Tab 0 ratings
1 star 2 stars 3 stars 4 stars 5 stars
comments

Party Hard Tab

-------------------------------------------------------------------------------
			     Party Hard - Andrew W.K.
-------------------------------------------------------------------------------
Tabbed by:lutzlongthc
Email:lutz100x100thc_soulfly@hotmail.com

Tuning:Standard


e|---------------------|
B|---------------------|
G|----9-9-9-9-9-9-9-9--|
D|----9-9-9-9-9-9-9-9--| repeat this a few times
A|----7-7-7-7-7-7-7-7--|
E|----0-0-0-0-0-0-0-0--|


e|--------------------------------------------------------11---11---12---12--|
B|------5/-----9\-----5/-----10\-----5/-----12\-----5/-----x----x---x----x---|
G|------x/-----x\-----x/------x\-----x/------x\-----x/-----8----8---9----9---|
D|------2/-----6\-----2/------7\-----2/------9\-----2/-----------------------|
A|---------------------------------------------------------------------------|
E|---------------------------------------------------------------------------|


e|---------------------------------------------14----14---16\---12\---7/--12-|
B|---9\-----5/-----10\-----5/-----12\-----5-----x-----x----x\----x\---x/---x-|
G|---x\-----x/------x\-----x/------x\-----x----11----11---13\----9\---4/---9-|
D|---6\-----2/------7\-----2/------9\-----2----------------------------------|
A|---------------------------------------------------------------------------|
E|---------------------------------------------------------------------------|


e|-----------------------------------------------------------------------|
B|-----------------------------------------------------------------------|
G|--1-1-1-1-1------------------------------------------------------------|
D|--2-2-2-2-2------------------------------------------------------------|
A|--2-2-2-2-2-------9---7-7-7-7-7-7-7-4-4-4-4-4---11----9-9-9-9-9--6--7--|
E|--0-0-0-0-0-------7---5-5-5-4-4-4-4-2-2-2-2-2----9----7-7-7-7-7--------|

[ Tab from: http://www.guitartabs.cc/tabs/a/andrew_w_k/party_hard_tab_ver_5.html ]
e|--------------------------------------------------------------|
B|--------------------------------------------------------------|
G|--1-1-1-1-1---------------------------------------------------|
D|--2-2-2-2-2-----------------------------------------------9---|
A|--2-2-2-2-2-------9---7-7-7-7-7-7-7-4-4-4-4-4---11----9-9-7-2-|
E|--0-0-0-0-0-------7---5-5-5-4-4-4-4-2-2-2-2-2----9----7-7---0-|

e|--------------------------------------------------------------------|
B|--------------------------------------------------------------------|
G|--------------------------------------------------------------------|
D|--------------------------------------------------------------------|play x2
A|--2-2-2-2-2-----9---7-7-7-7-7-7-7-4-4-4-4-4---11----9-9-9-9-9--6--7-|
E|--0-0-0-0-0-----7---5-5-5-4-4-4-4-2-2-2-2-2----9----7-7-7-7-7-------|


e|--------------------------------------------------------------------------|
B|--------------------------------------------------------------------------|
G|--------------------------------------------------------------------------|
D|--------------------------------------------------------------------------|
A|--7-----7--5------5--3------3--2------------5-----5--3------3--2-----7\---|
E|----0---------0---------0---------0---0--0-----0--------0---------0-----0-|

e|--------------------------------------------------------|
B|--------------------------------------------------------|
G|--------------------------------------------------------|
D|-----------------------------------------------1--2-----|
A|--------3----3--2---2---0-------0-0-0-2--2--2--------2--|
E|--0--0----0-------0---2---2--0--------------------------| (not 100% sure about this bit)


e|-------------------------------------------------------------------------|
B|-------------------------------------------------------------------------|
G|--1---1-1-1-1-1-1-------------------------1---1-1-1-1-1-1----------------|
D|--2---2-2-2-2-2-2-----7--7-7-7----7-7-----2---2-2-2-2-2-2-----7--7/12\7--|
A|--2---2-2-2-2-2-2-----7--7-7-7----7-7-----2---2-2-2-2-2-2-----7--7/12\7--|
E|--0---0-0-0-0-0-0-----5--5-5-4/5--5-5-----0---0-0-0-0-0-0-----5--5/10\5--|


e|---------------------------------------------------------------|
B|---------------------------------------------------------------|
G|--1---1-1-1-1-1-1----------------------------------------------|
D|--2---2-2-2-2-2-2-----7--7-7-7----7-7-----2---2-2-2-2-2-2---4--|
A|--2---2-2-2-2-2-2-----7--7-7-7----7-7-----2---2-2-2-2-2-2---x--|
E|--0---0-0-0-0-0-0-----5--5-5-4/5--5-5-----0---0-0-0-0-0-0---2--|

not finished yet....
Comments