Andrew W K - Party Hard Chords & Tabs

 

Party Hard Chords & Tabs

Andrew W K Chords & Tabs

Version: 4 Type: Tab 0 ratings
1 star 2 stars 3 stars 4 stars 5 stars
comments

Party Hard Tab

-------------------------------------------------------------------------------
			     PARTY HARD - Andrew W K
-------------------------------------------------------------------------------

Tabbed by: Jeff Gilchrist
Email: beefy_101@hotmail.com

Tuning: Standard E

Intro:
e|---------------------------------------------------------------------------|
B|---------------------------------------------------------------------------|
G|---------------------------------------------------------------------------|
D|-2-------------------------------------------------------------------------|
A|-2-------------------------------------------------------------------------|
E|-0-------------------------------------------------------------------------|
Keep hitting this chord for a while.

e|---------------------------------------------------------------------------|
B|---------------------------------------------------------------------------|
G|-13-9-14-9-16-9-[-20-21]-----[21-22-19]------------------------------------|
D|-x--x-x--x-x--x-[-x--x-]-----[x--x--x-]------------------------------------|
A|-11-7-12-7-14-7-[-18-19]-----[19-20-17]------------------------------------|
E|---------------------------------------------------------------------------|
                  1st time       2nd time          
Just use these chords; strumming not shown. If you don't have a 22nd fret,
then that's a shame.  There's probably another way to play it, or even more
likely; I'm wrong.

Verse:
e|---------------------------------------------------------------------------|
B|---------------------------------------------------------------------------|
G|---------------------------------------------------------------------------|
D|-2-9-7-6-4-6-4--[8/9]-------[9-2]------------------------------------------|
A|-2-9-7-6-4-6-4--[x/x]-------[9-2]------------------------------------------|
E|-0-7-5-4-2-4-2--[6/7]-------[7-0]------------------------------------------|
                  1st time    2nd time
Just chords; strumming not shown.
[ Tab from: http://www.guitartabs.cc/tabs/a/andrew_w_k/party_hard_tab_ver_4.html ]
Pre-Pre-Chorus?: (I dunno what it is)
e|---------------------------------------------------------------------------|
B|---------------------------------------------------------------------------|
G|-9/8/9-7/6/7-5/4/5-4--9/8/9-7/6/7-4-4-9----9/8/9-7/6/7-5/4/5-4-------------|
D|-9/8/9-7/6/7-5/4/5-4--9/8/9-7/6/7-4-4-9-2--9/8/9-7/6/7-5/4/5-4-------------|
A|-7/6/7-5/4/5-3/2/3-2--7/6/7-5/4/5-2-2-7-2--7/6/7-5/4/5-3/2/3-2-------------|
E|----------------------------------------0----------------------------------|

e|---------------------------------------------------------------------------|
B|---------------------------------------------------------------------------|
G|----------------8-9--------------------------------------------------------|
D|-7-7-7-9--9-9-9-8-9--------------------------------------------------------|
A|-7-7-7-9--9-9-9-6-7--------------------------------------------------------|
E|-5-5-5-7--7-7-7------------------------------------------------------------|
I got this part from a tabber named Genius6, and I think it sounds OK.

Pre-Chorus:
e|---------------------------------------------------------------------------|
B|---------------------------------------------------------------------------|
G|--------------------------------------------------7------------------------|
D|-2--2-2-2-2-2-2-7-7-7/6/7-7--2--2-2-2-2-2-2-7-7-7-7-7----------------------|
A|-2--2-2-2-2-2-2-7-7-7/6/7-7--2--2-2-2-2-2-2-7-7-7-5-7----------------------|
E|-0--0-0-0-0-0-0-5-5-5/4/5-5--0--0-0-0-0-0-0-5-5-5---5----------------------|

e|---------------------------------------------------------------------------|
B|---------------------------------------------------------------------------|
G|------------------------------------------------9--------------------------|
D|-2--2-2-2-2-2-2-7-7-7/6/7-7--2--2-2-2-2-2-2-4-9-9--------------------------|
A|-2--2-2-2-2-2-2-7-7-7/6/7-7--2--2-2-2-2-2-2-4-9-7--------------------------|
E|-0--0-0-0-0-0-0-5-5-5/4/5-5--0--0-0-0-0-0-0-2-7----------------------------|

Chorus:
e|---------------------------------------------------------------------------|
B|---------------------------------------------------------------------------|
G|----------------------------------------------------9-9--------------------|
D|-2-2-2-7-7/6/7--2-2-2-7-7/6/7--2-2-2-7-7/6/7--4-4-4-9-9--------------------|
A|-2-2-2-7-7/6/7--2-2-2-7-7/6/7--2-2-2-7-7/6/7--4-4-4-7-7--------------------|
E|-0-0-0-5-5/4/5--0-0-0-5-5/4/5--0-0-0-5-5/4/5--2-2-2------------------------|

e|---------------------------------------------------------------------------|
B|---------------------------------------------------------------------------|
G|------------------------------------------------------9--------------------|
D|-2-2-2-7-7/6/7--2-2-2-7-7/6/7--2-2-2-7-7/6/7--4-4-4-9-9--------------------|
A|-2-2-2-7-7/6/7--2-2-2-7-7/6/7--2-2-2-7-7/6/7--4-4-4-9-7--------------------|
E|-0-0-0-5-5/4/5--0-0-0-5-5/4/5--0-0-0-5-5/4/5--2-2-2-7----------------------|
Comments