Andrew W K - Party Hard Chords & Tabs

 

Party Hard Chords & Tabs

Andrew W K Chords & Tabs

Version: 3 Type: Tab 0 ratings
1 star 2 stars 3 stars 4 stars 5 stars
comments

Party Hard Tab

Intro
E -----------------------------------------------
B -----------------------------------------------
G -----------------------------------------------
D -22222222222222-22222222222222-----------------
A -22222222222222-22222222222222-----------------
E -00000000000000-00000000000000-----------------

Sub-Intro
E -----------------------------------------------
B -----------------------------------------------
G -------------------------------------11-11-13-9
D -6-2-7-2-9-2-13-13-14-14-6-2-7-2-9-2-----------
A -----------------------------------------------
E -----------------------------------------------

Verse
E -----------------------------------------------
B -----------------------------------------------
G -----------------------------------------------
D -2-2-2-2-2-9-7-7-7-6-6-6-4-4-4-11-99999999/14--
A -2-2-2-2-2-9-7-7-7-6-6-6-4-4-4-11-99999999/14--
E -0-0-0-0-0-7-5-5-5-4-4-4-2-2-2- 9-77777777/12--
[ Tab from: http://www.guitartabs.cc/tabs/a/andrew_w_k/party_hard_tab_ver_3.html ]
PreChorus
E -----------------------------------------------
B -----------------------------------------------
G -9-9-7-7-5-5-5-4-9-9-7-7-5-5-5-4---------------
D -9-9-7-7-5-5-5-4-9-9-7-7-5-5-5-4--------------
A -7-7-9-9-3-3-3-2-7-7-9-9-3-3-3-2---------------
E -----------------------------------------------

E -----------------------------------------------
B -----------------------------------------------
G -9-9-7-7-5-5-5-4-------------------------------
D -9-9-7-7-5-5-5-4-7-7-7-7-7-7-9-9-13-14---------
A -7-7-9-9-3-3-3-2-7-7-7-7-7-7-9-9-13-14---------
E -----------------5-5-5-5-5-5-7-7-11-12---------

Chorus
E -----------------------------------------------
B -----------------------------------------------
G -----------------------------------------------
D --2-2-2-2-7-7-7-7-2-2-2-2-7-7-7-7--------------
A --2-2-2-2-7-7-7-7-2-2-2-2-7-7-7-7--------------
E --0-0-0-0-5-5-5-5-5-5-5-5-5-5-5-5--------------

E -----------------------------------------------
B -----------------------------------------------
G -----------------------------------------------
D -2-2-2-2-7-7-7-7-9-9-9-9-14-14-14-14-----------
A -2-2-2-2-7-7-7-7-9-9-9-9-14-14-14-14-----------
E -0-0-0-0-5-5-5-5-7-7-7-7-12-12-12-12-----------

Structure:

Introx4

Sub-Introx2

Versex4

PreChorusx2

Chorusx2

Versex2

Sub-Introx2

Versex4

PreChorusx2

Chorusx4

This should be right.  I think it has everything
Comments