Andrew W K - Party Hard Chords & Tabs

 

Party Hard Chords & Tabs

Andrew W K Chords & Tabs

Version: 2 Type: Tab 0 ratings
1 star 2 stars 3 stars 4 stars 5 stars
comments

Party Hard Tab

Ok my first tab.......

intro:
e|---------------------------------------
b|---------------------------------------
g|---------------------------------------
d|-222222222222--------------------------
a|-222222222222--------------------------
e|-000000000000-for--ages----------------
[ Tab from: http://www.guitartabs.cc/tabs/a/andrew_w_k/party_hard_tab_ver_2.html ]
e|---------------------------------------
b|----------------------7-9--------------
g|-1--2--4--8-99-1--2--4-----9---9\2-----
d|--2--2--2-----2--2--2------------------
a|---------------------------------------
e|---------------------------------------

verse:
e|---------------------------------------
b|---------------------------------------
g|-------4-222------------4-22222-889----
d|-22222-4-222-6666-44444-4-22222-xxx----
a|-22222-2-000-6666-44444-2-00000-667----
e|-00000-------4444-22222----------------

e|-------------------------------------
b|-------------------------------------
g|-------4-222------------4-22-89------
d|-22222-4-222-6666-44444-4-22-xx-222--
a|-22222-2-000-6666-44444-2-00-67-222--
e|-00000-------4444-22222---------000--

there
Comments