Andrew W K - Party Hard Chords & Tabs

 

Party Hard Chords & Tabs

Andrew W K Chords & Tabs

Version: 1 Type: Tab 0 ratings
1 star 2 stars 3 stars 4 stars 5 stars
comments

Party Hard Tab

   
E -
B --------------------------------------------
G --------------------------------------------
D -33333333333333-33333333333333--------------
A -33333333333333-33333333333333--------------
D -33333333333333-33333333333333--------------
[ Tab from: http://www.guitartabs.cc/tabs/a/andrew_w_k/party_hard_tab.html ]
E --------------------------------------------
B --------------------------------------------
G --------------------------------------------
D -2-2-2-2-2-9-7-7-7-6-6-6-5-5-5-10-9-9-9-10--
A -2-2-2-2-2-9-7-7-7-6-6-6-5-5-5-10-9-9-9-10--
D -2-2-2-2-2-9-7-7-7-6-6-6-5-5-5-10-9-9-9-10--

E --------------------------------------------
B --------------------------------------------
G --------------------------------------------
D -7-3-8-3-10-3-10-14-14-7-3-8-3-10-3-10-14-12-
A --------------10-14-14--------------10-14-12-
D --------------10-14-14--------------10-14-12--
Comments