Andrew W K - Never Let Down Chords & Tabs

 

Never Let Down Chords & Tabs

Andrew W K Chords & Tabs

Version: 1 Type: Tab 0 ratings
1 star 2 stars 3 stars 4 stars 5 stars
comments

Never Let Down Tab

Andrew W.K.
Never let Down
Wolf album
Tabbed By Kevin Cruz

i'VE ONLY FIGURED OUT THE TWO SOLOS IN THE SONG

Standard Tunning

First solo
E:----------------------|--13-13-13-13-13p12-10--|--10-10-10h12-10----------|
B:-12-12-12-12-12h13-13-|------------------------|-----------------13-12-10-|
G:----------------------|------------------------|--------------------------|
D:----------------------|------------------------|--------------------------|
A:----------------------|------------------------|--------------------------|
E:----------------------|------------------------|--------------------------|

E:-13-12-10----10-12-10-|------|
B:----------13----------|------|
G:----------------------|--2X--|
D:----------------------|------|
A:----------------------|------|
E:----------------------|------|
[ Tab from: http://www.guitartabs.cc/tabs/a/andrew_w_k/never_let_down_tab.html ]
Second Solo
E:-------------------------|-13-13-13-13-13p12-10-10-|
B:-12-12-12-12-12h13-13-13-|-------------------------|
G:-------------------------|-------------------------|
D:-------------------------|-------------------------|
A:-------------------------|-------------------------|
E:-------------------------|-------------------------|

E:-10-10-10h12-10-------------|-13-12-10----10-12-10-|
B:----------------13-12-10----|----------13----------|
G:----------------------------|----------------------|
D:----------------------------|----------------------|
A:----------------------------|----------------------|
E:----------------------------|----------------------|

E:------------\15-15-15-15----|------------\15-15-15-17-15--|
B:-12-12-12-12-------------13-|-12-12-12-12-----------------|
G:----------------------------|-----------------------------|
D:----------------------------|-----------------------------|
A:----------------------------|-----------------------------|
E:----------------------------|-----------------------------|

E:-15-17-19-20-19-17-19-15-15-15-|-13-12-10----10-12-10-|
B:-------------------------------|----------13----------|
G:-------------------------------|----------------------|
D:-------------------------------|----------------------|
A:-------------------------------|----------------------|
E:-------------------------------|----------------------|
Comments