Andrew W K - Fun Night Chords & Tabs

 

Fun Night Chords & Tabs

Andrew W K Chords & Tabs

Version: 1 Type: Tab 0 ratings
1 star 2 stars 3 stars 4 stars 5 stars
comments

Fun Night Tab

pm- palm mute
Tuning-1e,2b,3g,4d,5a,6d

Intro
Yeeeaaaahhh!
e---------------------------------------------------------------------------
b---------------------------------------------------------------------------
g---------------------------------------------------------------------------
d---------------------------------------------------------------------------
a---77--000--55--00--55--77-7777--55--7777----------------------------------
d---77--000--55--00--55--77-7777--55--7777----------------------------------

Chorus
e---------------------------------------------------------------------------
b---------------------------------------------------------------------------
g---------------------------------------------------------------------------
d---------------------------------------------------------------------------
a---00--55--00--55--77-7777--55--7777---------------------------------------
d---00--55--00--55--77-7777--55--7777---------------------------------------
[ Tab from: http://www.guitartabs.cc/tabs/a/andrew_w_k/fun_night_tab.html ]
Verse
e---------------------------------------------------------------------------
b---------------------------------------------------------------------------
g---------------------------------------------------------------------------
d---------------------------------------------------------------------------
a---0-0005---5557---777057---0005---5557---777057---------------------------
d---0-0005---5557---777057---0005---5557---777057---------------------------
it does that a few times for the verse, on the last time it goes...

e---------------------------------------------------------------------------
b---------------------------------------------------------------------------
g---------------------------------------------------------------------------
d---------------------------------------------------------------------------
a---0005---5557---7770500--55--00--55--77-7777--55--7777--------------------
d---0005---5557---7770500--55--00--55--77-7777--55--7777--------------------
into that whole thing again

towards the end
e---------------------------------------------------------------------------
b---------------------------------------------------------------------------
g---------------------------------------------------------------------------
d---------------------------------------------------------------------------
a---3333333-----------------------------------------------------------------
d---3333333-----------------------------------------------------------------
    pm-----
for a while

i'm pretty sure this is it, if not, i deserve to burn in hell for troubling you and disgracing awk.
Comments