Andrew Lloyd Webber - Think Of Me Chords & Tabs

 

Think Of Me Chords & Tabs

Andrew Lloyd Webber Chords & Tabs

Version: 1 Type: Tab 0 ratings
1 star 2 stars 3 stars 4 stars 5 stars
comments

Think Of Me Tab

------------------------------------------------------------------------------
			     Think of me - Andrew Lloyd Webber
-------------------------------------------------------------------------------
Tabbed by: Mike
Email: Bringbackthebassline@gmail.com

Tuning: standard

e|------------------------10------------------------------10-----------------|
B|--787--555-10--5-3--33-----10-----787--555-10--5-3--33-----10--------------|
G|---------------------------------------------------------------------------|
D|---------------------------------------------------------------------------|
A|---------------------------------------------------------------------------|
E|---------------------------------------------------------------------------|

e|---------------------------------------------------------------------------|
B|--787--878787--11141717-15-12-7-5-----3-5-787--12-10---7---5-7-8-2-3-------|
G|---------------------------------------------------------------------------|
D|---------------------------------------------------------------------------|
A|---------------------------------------------------------------------------|
E|---------------------------------------------------------------------------|

e|--------------------11-------------------------------11--------------------|
B|--898--66611-6-4-44----11---------9898--66611-6-4-44----11-----------------|
G|---------------------------------------------------------------------------|
D|---------------------------------------------------------------------------|
A|---------------------------------------------------------------------------|
E|---------------------------------------------------------------------------|

e|---------------------------------------------------------------------------|
B|--898--989898--12151818-16-13-8-6----4-6-898--13-11-8---6-8-9-3-4----------|
G|---------------------------------------------------------------------------|
D|---------------------------------------------------------------------------|
A|---------------------------------------------------------------------------|
E|---------------------------------------------------------------------------|

e|-----11--1010869-----------------------------------------------------------|
B|--4--------------9-6---6-898--1311--8-6-1-3--------------------------------|
G|---------------------------------------------------------------------------|
D|---------------------------------------------------------------------------|
A|---------------------------------------------------------------------------|
E|---------------------------------------------------------------------------|
[ Tab from: http://www.guitartabs.cc/tabs/a/andrew_lloyd_webber/think_of_me_tab.html ]
e|--------------------11-------------------------------11--------------------|
B|--898--66611-6-4-44----11---------9898--66611-6-4-44----11-----------------|
G|---------------------------------------------------------------------------|
D|---------------------------------------------------------------------------|
A|---------------------------------------------------------------------------|
E|---------------------------------------------------------------------------|

e|--------------------------------------------------------------10-11--------|
B|--898--989898--12151818-16-13-8-6----4-6-898--13-11-8---6-8-9--------------|
G|---------------------------------------------------------------------------|
D|---------------------------------------------------------------------------|
A|---------------------------------------------------------------------------|
E|---------------------------------------------------------------------------|

e|--------------------11-----------------6-----------------------------------|
B|--898--66611-6-6-66----11-----898---666-6----------------------------------|
G|---------------------------------------------------------------------------|
D|---------------------------------------------------------------------------|
A|---------------------------------------------------------------------------|
E|---------------------------------------------------------------------------|

e|---------------------------------------------------------------------------|
B|--898--989898--12151818-16-13-8-6----4-6-898--13-11-8---6-8-9-3-4----------|
G|---------------------------------------------------------------------------|
D|---------------------------------------------------------------------------|
A|---------------------------------------------------------------------------|
E|---------------------------------------------------------------------------|

e|---------------------------------------------------------------------------|
B|--898--989898--12151818-16-13-8-6----4-6-898--13-11-8---6--8---9-----------|
G|---------------------------------------------------------------------------|
D|---------------------------------------------------------------------------|
A|---------------------------------------------------------------------------|
E|---------------------------------------------------------------------------|

e|---66-8-11-----88-11813-----13-16-10-13--------------------------18~~\11-11|
B|--9--9-9------9--9------------------12-15-9-12-----------------------------|
G|----------------------------------------------10-13-5~~~10\3---3/----------|
D|---------------------------------------------------------------------------|
A|---------------------------------------------------------------------------|
E|---------------------------------------------------------------------------|
Comments