Andrew Lloyd Webber - Phantom Of The Opera Chords & Tabs

 

Phantom Of The Opera Chords & Tabs

Andrew Lloyd Webber Chords & Tabs

Version: 2 Type: Tab 0 ratings
1 star 2 stars 3 stars 4 stars 5 stars
comments

Phantom Of The Opera Tab

This is only part of the song, and I figured this out by ear, and I haven't played
along with the CD yet, but please give me some feedback, because this is my first TAB.


[ Tab from: http://www.guitartabs.cc/tabs/a/andrew_lloyd_webber/phantom_of_the_opera_tab_ver_2.html ]
e--------------------------------|
B--------------------------------|
G--------------------------------|   x2
D------4----2-0-0----2-----------|
A----4---4----------2---2-4------|
E--------------------------------|

e ---------------------------------------------------|
B ---------------1--------3-1------------------------|
G ------2-0-0--0---0-2--2-----3-2-0------------------|
D --0-3-----------------------------3-2-0------------|
A 0---------------------------------------4--1-1-0-0-|
E ---------------------------------------------------|
Comments