Andrew Lloyd Webber - Music Of The Night Chords & Tabs

 

Music Of The Night Chords & Tabs

Andrew Lloyd Webber Chords & Tabs

Version: 1 Type: Tab 0 ratings
1 star 2 stars 3 stars 4 stars 5 stars
comments

Music Of The Night Tab

The Music of The NIght By Andrew Lloyd Webber

Starndard tuning.  This is my first Tab please i would really appriciate some feed back.

"The Music of the Night"

E|-------------------------|-------------------------|
B|-------------------------|-------------------------|
G|--------------------1----|---------------------1---|
D|--3---1------1-3-4-1-----|--3---1------1-3-4-1-----|
A|-----------4-------------|-----------4-------------|
E|----4---4----------------|----4---4----------------|
  Night time sharpens...     Darkness wakes....

E|-------------------------|-------------------------|-------------------------|
B|----2-2-2-4--2-1-----2-2-|2-4----2-2-2-4-2---------|-------------------------|
G|--3----------------3-----|-----3-----------3---1---|---------------1---------|
D|-------------------------|-------------------3-----|--3--3-1-1-3-4---3-1-----|
A|-------------------------|-------------------------|---------------------4---|
E|-------------------------|-------------------------|-------------------------|
  Silently the senses..          Helpless to resist...  For i compose the music...

E|-------------------------|-------------------------|
B|-------------------------|-------------------------|
G|---------------------1---|---------------------1---|
D|--3---1------1-3-4-1-----|--3---1------1-3-4-1-----|
A|-----------4-------------|-----------4-------------|
E|----4---4----------------|----4---4----------------|
  Slowly, gently ...         Grasp it, sense it...

E|-------------------------|-------------------------|-------------------------|
B|----2-2-2-4--2-1-----2-2-|2-4-2-1---2-2-2-4-2------|-------------------------|
G|--3----------------3-----|--------3-----------3---1|---------------1---------|
D|-------------------------|----------------------3--|--3--3-1-1-3-4---3-1-----|
A|-------------------------|-------------------------|---------------------4---|
E|-------------------------|-------------------------|-------------------------|
  Hearing is beliving music is deciving Hard as lightning soft as candle light
  Dare you trust the music of the night.

E|-------------------------|--------------0----------|-------------------------|
B|-------4---2-0-----------|------------0----4-2-----|--2-0-0------------------|
G|----1-----------3-1---1--|--1-------1--------------|--------3-3--------------|
D|--3-----------------4----|----4-2------------------|-------------------------|
A|-------------------------|-------------------------|-------------------------|
E|-------------------------|-------------------------|-------------------------|
  Close your eyes for you eyes will only tell the truth. And the truth isn't 
  what you want to see.

E|---------------------4---|-------------------------|
B|--4-4-4--2-1-------------|--1-1-1--1-1-1---1-2-1---|
G|-------------3-1-3-1-----|---------------3---------|
D|-------------------------|-------------------------|
A|-------------------------|-------------------------|
E|-------------------------|-------------------------|
  In the dark it is easy to pretend. That the truth is what is ought to be.
[ Tab from: http://www.guitartabs.cc/tabs/a/andrew_lloyd_webber/music_of_the_night_tab.html ]
E|-------------------------|-------------------------|
B|-------------------------|-------------------------|
G|--------------------1----|---------------------1---|
D|--3---1------1-3-4-1-----|--3---1------1-3-4-1-----|
A|-----------4-------------|-----------4-------------|
E|----4---4----------------|----4---4----------------|
  Softly deftly...           Hear it, feel it...

E|-------------------------|-------------------------|-------------------------|
B|----2-2-2-4--2-1-----2-2-|2-4-2-1---2-2-2-4-2------|-------------------------|
G|--3----------------3-----|--------3-----------3---1|---------------1---------|
D|-------------------------|----------------------3--|--3--3-1-1-3-4---3-1-----|
A|-------------------------|-------------------------|---------------------4---|
E|-------------------------|-------------------------|-------------------------|
  Open up your mind....                               The darknes of the music...

E|-------------------------|------------0------------|------------------------4|
B|--2-2-4-2-0--------------|----------0---4-2-2-0-0--|------4-4-4-2-1----------|
G|------------3-1---1------|--1-----1---------------3|--3-------------3-1-3-1--|
D|----------------4--------|----4-2------------------|-------------------------|
A|-------------------------|-------------------------|-------------------------|
E|-------------------------|-------------------------|-------------------------|
  Let your mind start...                               Close your eyes and let your music
  Set you free!

E|-------------------------|
B|--1-1-1--1-1-1---1-2-1---|
G|---------------3---------|
D|-------------------------|
A|-------------------------|
E|-------------------------|
  Only then can you belong to me.

E|-------------------------|-------------------------|
B|-------------------------|-------------------------|
G|--------------------1----|---------------------1---|
D|--3---1------1-3-4-1-----|--3---1------1-3-4-1-----|
A|-----------4-------------|-----------4-------------|
E|----4---4----------------|----4---4----------------|
  Floating, falling..       Touch me trust me savour ...


E|-------------------------|-------------------------|-------------------------|
B|----2-2-2-4--2-1-----2-2-|2-4-2-1---2-2-2-4-2------|-------------------------|
G|--3----------------3-----|--------3-----------3---1|---------------1---------|
D|-------------------------|----------------------3--|--3--3-1-1-3-4---3-1-----|
A|-------------------------|-------------------------|---------------------4---|
E|-------------------------|-------------------------|-------------------------|
  Let the dream begin...                               The power of the music ...


E|-------------------------|-------------------------|
B|----2-2-2-4--2-----------|------------------2~~2~~2|
G|--3------------3---1-----|------------1------------|
D|-----------------3-------|--3-1-1-3-4---3-1--------|
A|-------------------------|-------------------------|
E|-------------------------|-------------------------|
  You alone can make my song take flight. Help me make the music of the night
Comments