Andrew Lloyd Webber - Angel Of Music Chords & Tabs

 

Angel Of Music Chords & Tabs

Andrew Lloyd Webber Chords & Tabs

Version: 1 Type: Tab 0 ratings
1 star 2 stars 3 stars 4 stars 5 stars
comments

Angel Of Music Tab

Tuning: standard
[ Tab from: http://www.guitartabs.cc/tabs/a/andrew_lloyd_webber/angel_of_music_tab.html ]
e|-0---------------------------------------------------------------------------|
B|-----3---1---3----0-----------3---0------------------------------------------|
G|--------------------------2----------------0---------------------------------|
D|-----------------------------------------------------------------------------|
A|-----------------------------------------------------------------------------|
E|-----------------------------------------------------------------------------|
    Where in the world have you been hiding
e|-0------------------------------------------------------------------------------|
B|-----3---1----3--------------1--------------------------------------------------|
G|--------------------------------------------------------------------------------|
D|------------------------2-------------------------------------------------------|
A|--------------------------------------------------------------------------------|
E|--------------------------------------------------------------------------------|
     Really you were perfect
e|-0---------------------------------------------------------------------------|
B|-----3---1---3----0-----------3---0------------------------------------------|
G|--------------------------2----------------0---------------------------------|
D|-----------------------------------------------------------------------------|
A|-----------------------------------------------------------------------------|
E|-----------------------------------------------------------------------------|
     I only wish I knew your secret
e|-0------------------------------------------------------------------------------|
B|-----3---1----3--------------1--------------------------------------------------|
G|--------------------------------------------------------------------------------|
D|------------------------2-------------------------------------------------------|
A|--------------------------------------------------------------------------------|
E|--------------------------------------------------------------------------------|
     Who is this new tutor?
e|--------------------------------------------------------------------------------|
B|-1--0---------------------------------------------------------------------------|
G|---------2---0-------------------2----------------------------------------------|
D|-------------------3---2---2----------------------------------------------------|
A|--------------------------------------------------------------------------------|
E|--------------------------------------------------------------------------------|
     Father once spoke of an angel
e|----------------------------------------------------------------------------------|
B|----------------------------------------------------------------------------------|
G|-2--0-----------------------------------------------------------------------------|
D|---------3----2---0-----2-2-------------------------------------------------------|
A|----------------------------------------------------------------------------------|
E|----------------------------------------------------------------------------------|
     I used to dream he'd appear
e|--------------------------------------------------------------------------------|
B|-1--0---------------------------------------------------------------------------|
G|---------2---0-------------------2----------------------------------------------|
D|-------------------3---2---2----------------------------------------------------|
A|--------------------------------------------------------------------------------|
E|--------------------------------------------------------------------------------|
     Here in this room I can sense him
e|-----------------0--------------------------------------------------------------|
B|------0----1--------------3-----------------------------------------------------|
G|--------------------------------------------------------------------------------|
D|--------------------------------------------------------------------------------|
A|--------------------------------------------------------------------------------|
E|--------------------------------------------------------------------------------|
     And I know he's here
Comments