Andrew E - Humanap Ka Ng Pangit Chords & Tabs

 

Humanap Ka Ng Pangit Chords & Tabs

Andrew E Chords & Tabs

Version: 1 Type: Bass Tab 0 ratings
1 star 2 stars 3 stars 4 stars 5 stars
comments

Humanap Ka Ng Pangit Bass Tab

Artist: Andrew E.
Song: humanap ka ng pangit.
Tabber: sTaT|c`
for more info pls visit www.master-static.cjb.net
[ Tab from: http://www.guitartabs.cc/tabs/a/andrew_e/humanap_ka_ng_pangit_btab.html ]
G|-----------------------------------------------------|
D|-----------------------------------------------------|
A|---0-2-3---------5---------0-2-3--------5------------|
E|-------------5-------3-------------5--------3--------|

This is the bass... just repeat this....

G|-----------------------------------------------------|
D|-----------------------------------------------------|
A|---0-2-3---------5---------0-2-3--------5------------|
E|-------------5-------3-------------5--------3--------|

repeat and repeat...
Comments