Andrew E - Banyo Queen Chords & Tabs

 

Banyo Queen Chords & Tabs

Andrew E Chords & Tabs

Version: 1 Type: Tab 0 ratings
1 star 2 stars 3 stars 4 stars 5 stars
comments

Banyo Queen Tab

   
Artist: Andrew E.
Song: Banyo Queen
Tabbed By: Gadasher (GCF_14)
Email: feander_14@yahoo.com
Tuning: EADGBE

Intro:
[ Tab from: http://www.guitartabs.cc/tabs/a/andrew_e/banyo_queen_tab.html ]
E|-------------------------------------------------------------------------|
B|-------------------------------------------------------------------------|
G|-------------------------------------------------------------------------|
D|-------------------------------------------------------------------------|
A|----4--5--5-----4--5--5--5---4--2--2--0--2--2----2--------------2--0--0--|
E|--5----------5-------------------------------------5--3--3----3----------|
    D                                   Bm           G          A


E|-------------------------------------------------------------------------|
B|-------------------------------------------------------------------------|
G|-------------------------------------------------------------------------|
D|-------------------------------------------------------------------------|
A|----4--5--5-----4--5--5--5---4--2--2--0--2--2----2--------------2--0--0--|
E|--5----------5-------------------------------------5--3--3----3----------|
    D                                   Bm           G          A


............................THAT'S ALL......................................
Comments