Andrew E - Banyo Queen Chords & Tabs

 

Banyo Queen Chords & Tabs

Andrew E Chords & Tabs

Version: 1 Type: Bass Tab 0 ratings
1 star 2 stars 3 stars 4 stars 5 stars
comments

Banyo Queen Bass Tab

Artist: Andrew E.
Song Title: Banyo Queen
Tabbed by: Francis Peria

hindi ako sure kung tama toh..kinapa ko lang ehh..pero it sounds like the real thing..
[ Tab from: http://www.guitartabs.cc/tabs/a/andrew_e/banyo_queen_btab.html ]
G----------------------------------------------------|
D----------------------------------------------------|
A---0-4-5-5-0-4-5-5--5-4-2-2-0-2-2-2-0------2-0-0--0-|
E--------------------------------------3-3-3---------|

G----------------------------------------------------|
D----------------------------------------------------|
A---0-4-5-5-0-4-5-5--5-4-2-2-0-2-2-2-0------2-0-0--0-|
E--------------------------------------3-3-3---------| ulit ulit lang toh..

txt me if meron kaung comments..09184155066..inspired akong gumawa neto because of maki falfui..hehe..
Comments