Andre Nickatina - Mind Full Of Hatred Chords & Tabs

 

Mind Full Of Hatred Chords & Tabs

Andre Nickatina Chords & Tabs

Version: 1 Type: Bass Tab 0 ratings
1 star 2 stars 3 stars 4 stars 5 stars
comments

Mind Full Of Hatred Bass Tab

Artist: Andre Nickatina
Album: I Hate You With A Passion
Track: 13
 Year: 1995


Tabbed by: Istarii
E-mail: Istariimusic@hotmail.com

Tuning: Standard

Figure. 1
[ Tab from: http://www.guitartabs.cc/tabs/a/andre_nickatina/mind_full_of_hatred_btab.html ]
G|---------------------5---|
D|----------------5--7---7-|
A|--------------7----------|
E|-5---55---55-------------|


                  End Fig. 1
G|-------------------------|
D|----------------5--7-5---|
A|--------------7--------3-|
E|-5---55---55-------------|


Repeat Figure 1 throughout entire song (except when guitar and bass drop out of course.)
Comments