And You Will Know Us By The Trail Of Dead - Rest Will Follow Chords & Tabs

 

Rest Will Follow Chords & Tabs

And You Will Know Us By The Trail Of Dead Chords & Tabs

Version: 1 Type: Bass Tab

Rest Will Follow Bass Tab

   
THE REST WILL FOLLOW
And You Will Know Us By The Trail Of Dead

Taken from the Interscope album Worlds Apart (2005)

Transcribed by: Damian Pamminger (TwitcheD_85@hotmail.com)

Standard tuning: E A D G

Fig. 1a
| ----------------------------|
|  ---------------4-5-4-------|
|-5----5----5----------7------|
| ----------------------------|

Fig. 1b
| -------------|
| -------------|
|-5--5--000----|
| -------------|

Fig. 2
|  ----7------7---------4------4-----------------------------------------|
|----------------------------------------4------4---------7------7-------|
| 5-------5-----5--2-------2-----2---------------------------------------|
| -----------------------------------2-------2-----2--5-------5-----5----|
[ Tab from: http://www.guitartabs.cc/tabs/a/and_you_will_know_us_by_the_trail_of_dead/rest_will_follow_btab.html ]
Fig. 3
|--------------------------------------------------------------------------------|
|--------------------------------------------------------------------------------|
|-------------5------------------------------------------------5-----------------|
|-3-----7-----------5-----3-----7-----5-----5-----3-----7-----------5-----3------|

|------|
|------|
|------|
|-7----|

Fig. 4
| ------------------------------|------------|------------------------------------|
|----------------7--7--7--7----|---REPEAT---|-------------------------------------|
| ------------------------------|-three-more- |--------------------5--5--5--5--5--|
|-3-----7-----5--------------5-|----times----|-3--3--3--3--3--3-------------------|

|---|--------|---------------------|
|---|-REPEAT-|---------------------|
|-5-|--------|---------------------|
|---|--------|-3--3--3--3--3--3----|