And You Will Know Us By The Trail Of Dead - Mistakes And Regrets Chords & Tabs

 

Mistakes And Regrets Chords & Tabs

And You Will Know Us By The Trail Of Dead Chords & Tabs

Version: 1 Type: Tab 0 ratings
1 star 2 stars 3 stars 4 stars 5 stars
comments

Mistakes And Regrets Tab

Artist: And You Will Know Us By The Trail Of Dead
Song: Mistakes and Regrets

I will post more as I tab out the rest of the song.

Clean
[ Tab from: http://www.guitartabs.cc/tabs/a/and_you_will_know_us_by_the_trail_of_dead/mistakes_and_regrets_tab.html ]
e[------------------------------------------------------------------------]
B[------------------------------------------------------------------------]
G[------------------------------------------------------------------------]
D[--------3----------/-------5------------------2----------4---0-------0--]
A[----1-------1---1--/---3-------3---3------0-------0---0----------2------]
E[--3---3---3---3----/-5---5---5---5------2---2---2---2------0---0---0----]

e[---------------------------------]
B[--8-8-8--10--10------------------]
G[--9-9-9--11--11--10--10--8--8-8--]
D[--7-7-7---9---9--11--11--9--9-9--]
A[------------------9---9--7--7-7--]
E[---------------------------------]
Comments