And You Will Know Us By The Trail Of Dead - Caterwaul Chords & Tabs

 

Caterwaul Chords & Tabs

And You Will Know Us By The Trail Of Dead Chords & Tabs

Version: 1 Type: Bass Tab

Caterwaul Bass Tab

   
CATERWAUL
And You Will Know Us By The Trail Of Dead

Taken from the Interscope album Worlds Apart (2005)

Transcribed by: Damian Pamminger (TwitcheD_85@hotmail.com)

Standard tuning: E A D G

Fig. 1a
| ---------------|
| ---------------|
|-0-3-3--5-3-----|
| ---------------|

Fig. 1b
| -------------|------------|-------------|------------|
| -------------|---REPEAT-- |----------7--|---REPEAT---|
|-0-3-3--5-3--|-three-more-|------------- |-three-more-|
| -------------|---times----|-0-5-5--5----|---times----|

Fig. 2a
| ------------------------------------10-----------10-10-10-|-Repeat-----|
| ----------5------------8---------------------------------- |-Fig.-1a---|
| -----------------------------8-8--8------8-8-8-8----------|--four------|
|-0-3-3--3-----0-6-6--6-----0-----------0------------------|--times------|
[ Tab from: http://www.guitartabs.cc/tabs/a/and_you_will_know_us_by_the_trail_of_dead/caterwaul_btab.html ]
Fig. 2b
| ------------------------------------10-----------10-10-10------|
| ----------5------------8---------------------------------------|
| -----------------------------8-8--8------8-8-8-8----------0----|
|-0-3-3--3-----0-6-6--6-----0-----------0------------------------|

Fig. 3
|------------------------------|-----------|------------------------------------|
|------------------------------|--Repeat---|------------------------------------|
|-3--------------0-------------|-two-more-|-------------------------------------|
|------------------------------|---times---|-1--1--1--1--1--1--1--1--1--1--1----|

|-----------------------------------------------5-----5-----5-------|--------------|
|-------------------------------------------------------------------|---REPEAT-----|
|-----------------------------------------3--3-----3-----3-----3----|-three-more---|
|-1--1--1--1--1/-5--5--5--5--5--5--5--5----------------------------|---times-------|

End
| -------------|------------|-------------|------------|---------------- |
| -------------|---REPEAT-- |----------7--|---REPEAT---|----------7--\-- |
|-0-3-3--5-3--|-three-more-|------------- |- two-more--|---------------- |
| -------------|---times----|-0-5-5--5----| ---times----|-0-5-5--5-------|

|----------------|
|----------------|
|-3--------------|
|----------------|