Ancient - Prophecy Of Gehenna Chords & Tabs

 

Prophecy Of Gehenna Chords & Tabs

Ancient Chords & Tabs

Version: 1 Type: Tab 0 ratings
1 star 2 stars 3 stars 4 stars 5 stars
comments

Prophecy Of Gehenna Tab

   
Prophecy of Gehenna

By Ancient

From the Album "The Cainian Chronicle"

Transcribed by Andrew Anton


This one should be near perfect. The only part I was a little hazy on was
the intro but even that should almost perfect.

A)
|------------------------------------------------------------------
|------------------------------------------------------------------
|-------------------------------------------0----------------------
|-------0-----------0-----------0--------2-----2--------0----------
|----7-----7-----7-----7-----7-----7-----------------7-----7-----7-
|-0-----------5-----------0-----------3-----------0-----------5----
[ Tab from: http://www.guitartabs.cc/tabs/a/ancient/prophecy_of_gehenna_tab.html ]
|------------------------------------------------------------------
|------------------------------------------------------------------
|-------------------------0-----------------------7--5-------------
|-0-----------0--------2-----2--------9--------5--------------9----
|----7-----7-----7-----------------7-----7--3--------------7-----7-
|-------0-----------3-----------0-----------------------0----------

|------------------------------------|
|------------------------------------|
|-------------------------7-----6----|
|-8-----------9--------4-----4--6----|
|-7--------7-----7--2-----------4----|
|-------0----------------------------|

B)
|---------------------|
|---------------------|
|---------------------|
|-8----8----8----8--8-|
|-6----8----9----8--6-|
|---------------------|

C)
|---------------------|
|---------------------|
|---------------------|
|-2----4----7----6--4-|
|-4----4----4----4--4-|
|---------------------|

D)
|--------------------|
|--------------------|
|--------------------|
|-3----10----3----6--|
|-5-----0----5----7--|
|-----------------0--|

E)
|--------------------------|
|--------------------------|
|--------------------------|
|-3-2-3-10-9-7-3-2-3-6-7-9-|
|-5-5-5--0-0-0-5-5-5-7-7-7-|
|--------------------0-0-0-|

F)
|---|
|---|
|-7-|
|-7-|
|-5-|
|---|
Comments