Ancient - Mad Drandiose Bloodfiends Chords & Tabs

 

Mad Drandiose Bloodfiends Chords & Tabs

Ancient Chords & Tabs

Version: 1 Type: Tab 0 ratings
1 star 2 stars 3 stars 4 stars 5 stars
comments

Mad Drandiose Bloodfiends Tab

                Band: Ancient
                Album: Mad Grandiose Bloodfiends
                Song: Hecate, my love and lust

h = hammer on
x = mute
/ = slide
~ = pull string up
' = pull string down

Intro:
Has to play acoustic to have a great sound (or small distortion)
Part (1)

|------0------|-------0------|-------0------|------0-------|
|----4---4----|----4----4----|----5----5----|----5---5-----|
|--4----------|--4-----------|--5-----------|--5-----------|
|-------------|--------------|--------------|--------------|
|-------------|--------------|--------------|--------------|
|-------------|--------------|--------------|--------------|


|------0------|-------0------|-------0------|------0-------|
|----4----4---|----4-----4---|----2-----2---|----2----2----|
|-4-----------|--4-----------|--2-----------|-2------------|
|-------------|--------------|--------------|--------------|
|-------------|--------------|--------------|--------------|
|-------------|--------------|--------------|--------------|

repeat this 3x

2nd guitar plays (part 2)

|--4---5---4--|--7-----------|
|--4---5---4--|--7-----------|
|--4---5---4--|--7-----------|
|--6---7---6--|--9-----------|
|--6---7---6--|--9-----------|
|--4---5---4--|--7-----------| repeat this 2x (play slow)


(part 3)

|--4-4-4-4----|-5-5-5-5------|-4-4-4-4------|-2-2-2-2------|
|--4-4-4-4----|-5-5-5-5------|-4-4-4-4------|-2-2-2-2------|
|--4-4-4-4----|-5-5-5-5------|-4-4-4-4------|-2-2-2-2------|
|--6-6-6-6----|-7-7-7-7------|-6-6-6-6------|-4-4-4-4------|
|--6-6-6-6----|-7-7-7-7------|-6-6-6-6------|-4-4-4-4------|
|--4-4-4-4----|-5-5-5-5------|-4-4-4-4------|-2-2-2-2------|
repeat this 2 or 3 times

Solo 1:

|-------------|--------------|
|-6-6h7-------|-4-6-7-9-6/7--|
|-------------|--------------|
|-------------|--------------|
|-------------|--------------|
|-------------|--------------|




Solo 2:
[ Tab from: http://www.guitartabs.cc/tabs/a/ancient/mad_drandiose_bloodfiends_tab.html ]
|-------------|--------------|--------------|
|-3-5-6-5-3---|-5-6-5-8-6-5-6|-8-6-5-(6)----|
|-------------|--------------|--------------|
|-------------|--------------|--------------|
|-------------|--------------|--------------|
|-------------|--------------|--------------| repeat solo 2: 4x

Some synthesizer through solo


Repeat part 1 till 3.41 on cd (till next solo)


Solo 3:

|-------------|--------------|--------------|--------------|
|--10~-9'-----|-12/9---7-5-7-|-9h7---10h9h10|-12h10h12-----|
|-------------|--------------|--------------|--------------|
|-------------|--------------|--------------|--------------|
|-------------|--------------|--------------|--------------|
|-------------|--------------|--------------|--------------|


|-------------|--------------|-----17-19-20-|-19~----------|
|-12-13-15----|15/17/19/17/15|-15-----------|--------------|
|-------------|--------------|--------------|--------------|
|-------------|--------------|--------------|--------------|
|-------------|--------------|--------------|--------------|
|-------------|--------------|--------------|--------------|


|-------------|--------------|-10-12-13/15/-|17~-----------|
|-10~-9h10h9h-|10-7---9-10---|--------------|--------------|
|-------------|--------------|--------------|--------------|
|-------------|--------------|--------------|--------------|
|-------------|--------------|--------------|--------------|
|-------------|--------------|--------------|--------------|


|-------------|--------------|--------------|--------------|
|-4-4h5h4h5h4-|-5-7-5--------|-4-4h5h4h5h4--|-5-7-9--------|
|-------------|--------------|--------------|--------------|
|-------------|--------------|--------------|--------------|
|-------------|--------------|--------------|--------------|
|-------------|--------------|--------------|--------------|

guitar 1 repeat part (3)

guitar 2 plays solo 1 at 2nd time at part (3)

repeat part (2) 2x and end with 6
                                4


Drum solo at end
6 at each drum i think
4

repeat part (1) till end of the song

This has been tabbed out by: razor@euronet.nl
enjoy this song.
Please visit on telnet: adress: imagica.net
                        port  : 4000


(ADD)
Comments