Ancient - Homage To Pan Chords & Tabs

 

Homage To Pan Chords & Tabs

Ancient Chords & Tabs

Version: 1 Type: Tab 0 ratings
1 star 2 stars 3 stars 4 stars 5 stars
comments

Homage To Pan Tab

Transcribed by Serkan Gunturk

gunturkk@boun.edu.tr

ANCIENT



"Homage to Pan" from the album "The Cainian Chronicle"


--------------------------------------------------------------------



  intro
e:-------------------------------------------------------------------|
B:------------------8--------------------------------8---------------|
G:------8---7-----------8---7-------7---8---7------------8---7-------|
D:--10----------10--------------10--------------10---------------10--|
A:-------------------------------------------------------------------|
E:-------------------------------------------------------------------|


e:-------------------------------------------------------------------|
B:---9---8-------8---9---11--9---8---9---8-------8-------------------|
G:-----------10------------------------------10------10--8---7---8---|
D:-------------------------------------------------------------------|
A:-------------------------------------------------------------------|
E:-------------------------------------------------------------------|

      riff 1  (all triplets)
e:---------------------------------------------------------------------------|
B:---------------------------------------------------------------------------|
G:---------------------------------------------------------------------------|
D:---------------------------------------------------------------------------|
A:---0---0---0---3---3---3---2---2---2---5---5---5---7---7---7---3---3---3---|
E:---------------------------------------------------------------------------|


                           
                           

e:------------------------|
B:------------------------|
G:------------------------|
D:------------------------|
A:2---2---2---0---0---0---|
E:------------------------|


e:---------------------------------------------------------------------------|
B:---------------------------------------------------------------------------|
G:---------------------------------------------------------------------------|
D:------------------------------------5---5---5---7---7---7------------------|
A:5---5---5---7---7---7---8---8---8---------------------------8---8---8---7--|
E:---------------------------------------------------------------------------|


                        
                        

e:---------------------|
B:---------------------|
G:---------------------|
D:---------------------|
A:-7---7---5---5---5---|
E:---------------------|

[ Tab from: http://www.guitartabs.cc/tabs/a/ancient/homage_to_pan_tab.html ]
e:---------------------------------------------------------------------------|
B:---------------------------------------------------------------------------|
G:---------------------------------------------------------------------------|
D:---------------------------------------------------------------------------|
A:-0---0---0---3---3---3---2---2---2---5---5---5---7---7---7---3---3---3---2-|
E:---------------------------------------------------------------------------|


                        
                        

e:---------------------|
B:---------------------|
G:---------------------|
D:---------------------|
A:--2---2---0---0---0--|
E:---------------------|


e:---------------------------------------------------------------------------|
B:---------------------------------------------------------------------------|
G:---------------------------------------------------------------------------|
D:---------------------------------------------------------------------------|
A:-8---8---8---8---8---8---8---8---8---8---8---8---7---7---7---7---7---7---5-|
E:---------------------------------------------------------------------------|


                         
                         

e:----------------------|
B:----------------------|
G:----------------------|
D:----------------------|
A:--5---5---5---5---5---|
E:----------------------|

    riff 2
e:-----------------------------------------------------------------|
B:-----------------------------------------------------------------|
G:-----------------------------------------------------------------|
D:-----------------------------------------------------------------|
A:--0---0---0---3---3---3--2---2---2---2---2---3---3---3---2---2---|
E:--0-----------0----------0-------3-----------3-----------3-------|


e:-----------------------------------------------------------------|
B:-----------------------------------------------------------------|
G:-----------------------------------------------------------------|
D:-----------------------------------------------------------------|
A:--3---3---3---5---5---5---3---3---2---2---2---3---3---3---2---2--|
E:--1-----------1-----------1-------0-----------0-----------0------|


e:------------------------------------------------------------------|
B:------------------------------------------------------------------|
G:------------------------------------------------------------------|
D:------------------------------------------------------------------|
A:---0---0---0---3---3---3---2---2---2---2---2---3---3---3---2---2--|
E:---0-----------0-----------0-------3-----------3-----------3------|


e:-------------------------------------------------------------------|
B:-------------------------------------------------------------------|
G:-------------------------------------------------------------------|
D:-------------------------------------------------------------------|
A:--3---3---3---5---5---5---3---3---7---7---7---7---7---7---7---7----|
E:--1-----------1-----------1-------0-----------0-----------0--------|


...
Comments