Ancient - Hecate My Love And Lust Chords & Tabs

 

Hecate My Love And Lust Chords & Tabs

Ancient Chords & Tabs

Version: 1 Type: Tab 0 ratings
1 star 2 stars 3 stars 4 stars 5 stars
comments

Hecate My Love And Lust Tab

ANCIENT - HECATE, MY LOVE AND LUST

From the album: Mad Grandiose Bloodfiends


Tabbed by: Arto Osterman (Finland) 27.7.1999
E-mail: thornofsin@hotmail.com

Tuning: standard


Marking:

Let ring: l
Palm mute: m


Riff 1: (Clean guitar)

|-------0------------0------------0-----------0-------
|-----4---4--------4---4--------4---4-------4---4-----
|---6-------6----6-------6----6-------6---6-------6---
|-6------------6------------7------------7------------
|-----------------------------------------------------
|-----------------------------------------------------


   --------0------------0------------0------------0-------|
   ------4---4--------4---4--------4---4--------4---4-----|
   ----6-------6----6-------6----6-------6----6--------6--|
   --6------------6------------5------------5-------------|
   -------------------------------------------------------|
   -------------------------------------------------------|


Riff 2: (Distortion) Play riff 1 under this:

|----------------|
|----------------|
|----------------|
|-6-------6---5--|
|-4---7---4---3--|
|-----5----------|
  l   l   l   l



Riff 3:
[ Tab from: http://www.guitartabs.cc/tabs/a/ancient/hecate_my_love_and_lust_tab.html ]
|---------------------------------------------------------|
|---------------------------------------------------------|
|---------------------------------------------------------|
|-6-66-66-66-6----------------6-66-66-66-6--5-55-55-55-5--|
|-4-44-44-44-4--7-77-77-77-7--4-44-44-44-4--3-33-33-33-3--|
|---------------5-55-55-55-5------------------------------|


Riff 4:

|---------------------------------------------------
|---------------------------------------------------
|---------------------------------------------------
|--------------------------4-444-4-444-4-444-4-444--
|-4-444-4-444-4-444-4-444---------------------------
|---------------------------------------------------


        -------------------------------------------------------|
        -------------------------------------------------------|
        -------------------------------------------------------|
        -----------------------------4-444-4-444--6-666-6-666--|
        -4-444--6-666--7-777--6-666----------------------------|
        -------------------------------------------------------|


Riff 5:

|-----------------------------------------------------|
|-----------------------------------------------------|
|-----------------------------------------------------|
|-0-000--5-8-7--0-000--5-8-7-------5-8-7-------5-8-7--|
|----------------------------0-000-------0-000--------|
|-----------------------------------------------------|


Sorry, no solo!


                  >>> ANY CORRECTIONS ARE WELCOME <<<
Comments