Anberlin - Readyfuels Chords & Tabs

 

Readyfuels Chords & Tabs

Anberlin Chords & Tabs

Version: 3 Type: Tab 0 ratings
1 star 2 stars 3 stars 4 stars 5 stars
comments

Readyfuels Tab

Solo
[------------------------------------------------------8~--8----------------]
[-----------10~------8---------------------------------------11-10----10----]
[--9b10b9-7-----9-10---10-9b10b9-9b10b9-7----7--9b10b9-------------12----12b]
[-----------------------------------------10--------------------------------]
[---------------------------------------------------------------------------]
[---------------------------------------------------------------------------]

[--------------------------------8------------------------------------------]
[--10-----10-----10----------------------10--10p8-10p8-10p8-10p8-10p8--10p8-]
[-----12b----12b----12b--7--9-10---10\12--------------9---------9----9------]
[---------------------------------------------------------------------------]
[---------------------------------------------------------------------------]
[---------------------------------------------------------------------------]
[ Tab from: http://www.guitartabs.cc/tabs/a/anberlin/readyfuels_tab_ver_3.html ]
[----------------------12p10-12p10--12p10-12p10--12p10---12p10-12p10--12p10-]
[-10p8-10pb-10p8-10p8-------------12-----------12-----12------------12------]
[-----9---------9----9------------------------------------------------------]
[---------------------------------------------------------------------------]
[---------------------------------------------------------------------------]
[---------------------------------------------------------------------------]

[12p10--12p10----------------------17----17----17----17----]
[-----12-----12---10-12b-10~~---19b---19b---19b---19b---19b]
[----------------------------------------------------------]
[----------------------------------------------------------]
[----------------------------------------------------------]
[----------------------------------------------------------]

I am almost 100% sure that this is the right solo, the little 10-12b-10 part is the only
part im not for sure about so if you figure it out e-mail me (Jfreak2199@aol.com).  Now
just check the ReadyFuels version 1 to learn the rest of the song if you haven't done so
and start rocking out. God Bless.
Comments