Anberlin - Never Take Friendship Personal Chords & Tabs

 

Never Take Friendship Personal Chords & Tabs

Anberlin Chords & Tabs

Version: 2 Type: Tab 0 ratings
1 star 2 stars 3 stars 4 stars 5 stars
comments

Never Take Friendship Personal Tab

   
----------------------------------------------------------------------------
	       Never Take Friendship Personal - Anberlin
----------------------------------------------------------------------------
Tabbed by: tucker y. (guitaristtuck)
Email: guitaristtuck@aim.com

Tuning: D-A-D-G-B-E

notes:
-in the intro, try playing guitar 2's part with these fingers: 

   22132230221322302213 - index-1, middle-2, ring-3, and pinky-4
e|----3---0---3---0---3|
B|---1---3---1---3---1-|if you play it this way, it will be much easier  
G|-22--22--22--22--22--|because you'll mainly just have to move your ring finger.

intro-

guiatar 1        x2
e|-----------------|---------------------------------|---------------------|
B|-----------------|---------------------------------|---------------------|
G|-----------------|---------------------------------|---------------------|
D|-777-777-777-777-|-777-777-777-777-777-777-777-777-|-333-333-333-333-000-|
A|-777-777-777-777-|-777-777-777-777-777-777-777-777-|-333-333-333-333-000-|
D|-777-777-777-777-|-777-777-777-777-777-777-777-777-|-333-333-333-333-000-|

guitar 2
e|-----------------|----3---0---3---0---3---0--------|----3---0---3---0---3|
B|-----------------|---1---3---1---3---1---3---10--01|---1---3---1---3---1-|
G|------rest-------|-22--22--22--22--22--22--22--22--|-22--22--22--22--22--|
D|-----------------|---------------------------------|---------------------|
A|-----------------|---------------------------------|---------------------|
D|-----------------|---------------------------------|---------------------|

guitar 1                      (1 means 10 here)                             
e|-------------|-------------------------^^^^^^^^|-------------------------|
B|-------------|---------------------------------|-------------------------|
G|-------------|---------------------------------|-------------------------|
D|000-000-000--|-77777777777777779999999911111111|3333333333333333000000000|
A|000-000-000--|-77777777777777777777777777777777|3333333333333333000000000|
D|000-000-000--|-77777777777777777777777777777777|3333333333333333000000000|

guitar 2
e|---0---------|----3---0---3---0---3---0--------|---3---0---3---0---3---0-|
B|--3---10--01-|---1---3---1---3---1---3---10--01|--1---3---1---3---1---3--|
G|22--22--22---|-22--22--22--22--22--22--22--22--|22--22--22--22--22--22--2|
D|-------------|---------------------------------|-------------------------|
A|-------------|---------------------------------|-------------------------|
D|-------------|---------------------------------|-------------------------|

        verse
guitar 1
e|-------|----------------------------------------------------------------|
B|-------|----------------------------------------------------------------|
G|-------|----------------------------------------------------------------|
D|0000000|-777-777-777-777-777-777-777-777-333-333-333-333-000-000-000-000|
A|0000000|-777-777-777-777-777-777-777-777-333-333-333-333-000-000-000-000|
D|0000000|-777-777-777-777-777-777-777-777-333-333-333-333-000-000-000-000|

        verse
guitar 2                  (guitar 2 rests on second time around)
e|-------|-----------------------------------------------------------------|
B|-10--01|-----------------------------------------------------------------|
G|2--22--|--------------------------9--7--5~----2~---------------------xxx-|
D|-------|--------------------------------------0----------------------xxx-|
A|-------|--------------------------7--5--3~----0----------------------xxx-|
D|-------|--------------------------------------0----------------------xxx-|

guitar 1                                                         chorus
e|---------------------------------------------------------------|---------|
B|---------------------------------------------------------------|---------|
G|---------------------------------------------------------------|---------|
D|777-777-777-777-777-777-777-777-333-333-333-333-000-000-000-000|-777-777-|
A|777-777-777-777-777-777-777-777-333-333-333-333-000-000-000-000|-777-777-|
D|777-777-777-777-777-777-777-777-333-333-333-333-000-000-000-000|-777-777-|
[ Tab from: http://www.guitartabs.cc/tabs/a/anberlin/never_take_friendship_personal_tab_ver_2.html ]
guitar 2                                                         chorus
e|---------------------------------------------------------------|---------|
B|---------------------------------------------------------------|---------|
G|777-777-777-777-555-555-555-555-555-555-555-555-777-777-777-777|-7-7-7-7-|
D|777-777-777-777-555-555-555-555-333-333-333-333-777-777-777-777|--7-7-7-7|
A|555o555o555o555o333o333o333o333o333o333o333o333o555o555o555o555|---------|
D|---------------------------------------------------------------|---------|

guitar 1
e|---------------------------------------------------------|---------------|
B|---------------------------------------------------------|---------------|
G|---------------------------------------------------------|---------------|
D|777-777-777-777-777-777-333-333-333-333-000-000-000-000--|-77777777777777|
A|777-777-777-777-777-777-333-333-333-333-000-000-000-000--|-77777777777777|
D|777-777-777-777-777-777-333-333-333-333-000-000-000-000--|-77777777777777|

guitar 2 
e|---------------------------------------------------------|----3---0---3--|
B|---------------------------------------------------------|---1---3---1---|
G|9-9-9-9-7-7-7-7-9-9-9-9-7-7-7-7-9-9-9-9-7-7-7-7-9-9-9-9--|-22--22--22--22|
D|-7-7-7-7-7-7-7-7-7-7-7-7-7-7-7-7-7-7-7-7-7-7-7-7-7-7-7-7-|---------------|
A|---------------------------------------------------------|---------------|
D|---------------------------------------------------------|---------------|

guitar 1                                          bridge
e|---------------------------------------------------|---------------------|
B|---------------------------------------------------|---------------------|
G|---------------------------------------------------|---------------------|
D|77999999991111111133333333333333330000000000000000-|-7--------------3----|
A|77777777777777777733333333333333330000000000000000-|-7--------------3----|
D|77777777777777777733333333333333330000000000000000-|-7--------------3----|

guitar 2                                          bridge
e|-0---1---0-----------3---0---3---0---3---0---------|---------------------|
B|3---3---1---10--01--1---3---1---3---1---3---10--01-|---------------------|
G|--22--22--22--22--22--22--22--22--22--22--22--22---|---------------------|
D|---------------------------------------------------|------------rest-----|
A|---------------------------------------------------|---------------------|
D|---------------------------------------------------|---------------------|

guitar 1                    palm mute  repeat this part
e|------------------------------/\----|------------------------------------|
B|-----------------------------/--\---|------------------------------------|
G|----------------------------/----\--|------------------------------------|
D|0----7--------------3-------00000000|777777777777777755555555555555557777|
A|0----7--------------3-------00000000|777777777777777755555555555555557777|
D|0----7--------------3-------00000000|777777777777777755555555555555557777|

guitar 2
e|------------------------------------|------------------------------------|
B|------------------------------------|------------------------------------|
G|------------------------------------|555555557777999944444444555577775555|
D|------------------------------------|555555557777999944444444555577775555|
A|------------------------------------|333333335555777722222222333355553333|
D|------------------------------------|------------------------------------|

guitar 1  1st ending      2nd ending                       
e|------------|----------------|----------------------------------|
B|------------|----------------|----------------------------------|
G|------------|----------------|----------------------------------|
D|777777777777|2222222233333333|0---------------------------------|
A|777777777777|3333333333333333|0---------------------------------|
D|777777777777|2222222233333333|0---------------------------------|

guitar 2  1st ending      2nd ending
e|------------|----------------|----------------------------------|
B|------------|----------------|----------------------------------|
G|555577779999|4445552-22222222|7-7-7-7-9-9-9-9-7-7-7-7-9-9-9-9---|
D|555577779999|4445550-00000000|-7-7-7-7-7-7-7-7-7-7-7-7-7-7-7-7--|
A|333355557777|2223330-00000000|----------------------------------|
D|------------|------0-00000000|----------------------------------|
Comments