Anberlin - Naive Orleans Chords & Tabs

 

Naive Orleans Chords & Tabs

Anberlin Chords & Tabs

Version: 1 Type: Tab

Naive Orleans Tab

tabbed by: run5home
email:bball10@ne.rr.com

any corrections? comment, or email. im looking to perfect this tab

Intro I:
[ Tab from: http://www.guitartabs.cc/tabs/a/anberlin/naive_orleans_tab.html ]
e----------------------------------------|
B----------4---------------------1---2---|
G----------------------5-----------1-----|
D------6-----------6---------------------|
A----4---4-------3---3-------------------|
E-----------------------------2----------| x4

Intro II:

e----------------------------------------|
B------2-------4--------6----------------|
G----1---1---3---3----6---6-------8------|
D-------------------------------6---6----|
A----------------------------4-----------|
E--2-------4--------6--------------------| x2

F# (power chord-let ring)