Anberlin - Foreign Language Chords & Tabs

 

Foreign Language Chords & Tabs

Anberlin Chords & Tabs

Version: 1 Type: Tab 0 ratings
1 star 2 stars 3 stars 4 stars 5 stars
comments

Foreign Language Tab

Foreign Language
 Anberlin
 Blueprints for the Blackmarket

 Verse 1

|---------------------------------------------------------------------|
|---------------------------------------------------------------------|
|---7-------------7-----6-----7-----4-------------7-----6-----7-------|
|---7-------------7-----7-----7-----4-------------7-----7-----7-------|
|---------------------------------------------------------------------|
|---------------------------------------------------------------------|
|                                                                     |
|---------------------------------------------------------------------|
|---------------------------------------------------------------------|
|---------------------------------------------------------------------|
|-----------------------------------0-0-0-0-0-0-0-0-0-0-0-0-0-0-0-0---|
|---5-5-5-5-5-5-5-5-5-5-5-5-5-5-5-5-2-2-2-2-2-2-2-2-2-2-2-2-2-2-2-2---|
|---------------------------------------------------------------------|
    . . . . . . . . . . . . . . . . . . . . . . . . . . . . . . . . 

|---------------------------------------------------------------------|
|---------------------------------------------------------------------|
|---7-------------7-----6-----7-----6-------------7-----6-----7-------|
|---7-------------7-----7-----7-----7-------------7-----7-----7-------|
|---------------------------------------------------------------------|
|---------------------------------------------------------------------|
|                                                                     |
|---------------------------------------------------------------------|
|---------------------------------------------------------------------|
|---------------------------------------------------------------------|
|---------------------------------------------------------------------|
|---5-5-5-5-5-5-5-5-5-5-5-5-5-5-5-5-7-7-7-7-7-7-7-7-7-7-7-7-7-7-7-7---|
|---5-5-5-5-5-5-5-5-5-5-5-5-5-5-5-5-7-7-7-7-7-7-7-7-7-7-7-7-7-7-7-7---|
    . . . . . . . . . . . . . . . . . . . . . . . . . . . . . . . . 

     Repeat verse 1, playing the riff below the second time through

|---10--10--10--10--10--10--10--10--10--10--10--10--10--10--10--10----|
|-----10--10--10--10--10--10--10--10--7---7---7---7---7---7---7---7---|
|---------------------------------------------------------------------|
|---------------------------------------------------------------------|
|---------------------------------------------------------------------|
|---------------------------------------------------------------------|
    . . . . . . . . . . . . . . . . . . . . . . . . . . . . . . . . 

|---10--10--10--10--10--10--10--10--10--10--10--10--10--10--10--10----|
|-----8---8---8---8---8---8---8---8---10--10--10--10--10--10--1010---|
|---------------------------------------------------------------------|
|---------------------------------------------------------------------|
|---------------------------------------------------------------------|
|---------------------------------------------------------------------|
    . . . . . . . . . . . . . . . . . . . . . . . . . . . . . . . . 

                             Instrumental

|---------------------------------------------------------------------|
|-------10--------10-------10---7b--------10--------10-------10---7b--|
|--7----------7--------7-------------7----------7--------7------------|
|---------------------------------------------------------------------|
|---------------------------------------------------------------------|
|---------------------------------------------------------------------|
|                                                                     |
|---------------------------------------------------------------------|
|---------------------------------------------------------------------|
|--7----7-----7---7----7---7----7-------------------------------------|
|--7----7-----7---7----7---7----7----9----9-----9---9----9---9----9---|
|--5----5-----5---5----5---5----5----9----9-----9---9----9---9----9---|
|------------------------------------9----9-----9---9----9---9----9---|


|---------------------------------------------------------------------|
|-------10--------10-------10---7b------------------------------------|
|--7----------7--------7-------------9----7-----9---7----9---9----9---|
|---------------------------------------------------------------------|
|---------------------------------------------------------------------|
|---------------------------------------------------------------------|
|                                                                     |
|---------------------------------------------------------------------|
|---------------------------------------------------------------------|
|--7----7-----7---7----7---7----7-------------------------------------|
|--7----7-----7---7----7---7----7----7----7-----7---7----7---7----7---|
|--5----5-----5---5----5---5----5----7----7-----7---7----7---7----7---|
|--5----5-----5---5----5---5----5----7----7-----7---7----7---7----7---|

                                Verse 2

|---------------------------------------------------------------------|
|---------------------------------------------------------------------|
|---7-------------7-----6-----7-----4-------------7-----6-----7-------|
|---7-------------7-----7-----7-----4-------------7-----7-----7-------|
|---------------------------------------------------------------------|
|---------------------------------------------------------------------|
|                                                                     |
|---------------------------------------------------------------------|
|---------------------------------------------------------------------|
|---------------------------------------------------------------------|
|-----------------------------------0-0-0-0-0-0-0-0-0-0-0-0-0-0-0-0---|
|---5-5-5-5-5-5-5-5-5-5-5-5-5-5-5-5-2-2-2-2-2-2-2-2-2-2-2-2-2-2-2-2---|
|---------------------------------------------------------------------|
|   . . . . . . . . . . . . . . . . . . . . . . . . . . . . . . . .   |
|                                                                     |
|---10--10--10--10--10--10--10--10--10--10--10--10--10--10--10--10----|
|-----10--10--10--10--10--10--10--10--7---7---7---7---7---7---7---7---|
|---------------------------------------------------------------------|
|---------------------------------------------------------------------|
|---------------------------------------------------------------------|
|---------------------------------------------------------------------|
    . . . . . . . . . . . . . . . . . . . . . . . . . . . . . . . . 

|---------------------------------------------------------------------|
|---------------------------------------------------------------------|
|--7----7-----7---7----7---7----7-------------------------------------|
|--7----7-----7---7----5---5----5----7----7-----7---7----7---7----7---|
|--5----5-----5---5----5---5----5----7----7-----7---7----7---7----7---|
|--5----5-----5---5----5---5----5----7----7-----7---7----7---7----7---|

|---------------------------------------------------------------------|
|---------------------------------------------------------------------|
|--7----7-----7---7----7---7----7-------------------------------------|
|--7----7-----7---7----7---7----7----9----9-----9---9----9---9----9---|
|--5----5-----5---5----5---5----5----9----9-----9---9----9---9----9---|
|------------------------------------9----9-----9---9----9---9----9---|

|---------------------------------------------------------------------|
|---------------------------------------------------------------------|
|--7----7-----7---7----7---7----7-------------------------------------|
|--7----7-----7---7----5---5----5----7----7-----7---7----7---7----7\--|
|--5----5-----5---5----5---5----5----7----7-----7---7----7---7----7\--|
|--5----5-----5---5----5---5----5----7----7-----7---7----7---7----7\--|

                                Chorus

|---------------------------------------------------------------------|
|---------------------------------------------------------------------|
|---------------------------------------------------------------------|
|--2----2-----2---2----2---2----7----7----7-----7---7----7---7----7---|
|--2----2-----2---2----2---2----5----5----5-----5---5----5---5----5---|
|--2----2-----2---2----2---2----4----5----5-----5---5----5---5----5---|


|---------------------------------------------------------------------|
|---------------------------------------------------------------------|
|---------------------------------------------------------------------|
|--2----2-----2---2----2---2----7----7----7-----7---7----7---7----7---|
|--2----2-----2---2----2---2----5----5----5-----5---5----5---5----5---|
|--2----2-----2---2----2---2----4----5----5-----5---5----5---5----5---|


|---------------------------------------------------------------------|
|---------------------------------------------------------------------|
|---------------------------------------------------------------------|
|--2----2-----2---2----2---2----7----5----5-----5---5~-------5~-------|
|--2----2-----2---2----2---2----5----5----5-----5---5~-------5~-------|
|--2----2-----2---2----2---2----4----5----5-----5---5~-------5~-------|

                                Verse 3
[ Tab from: http://www.guitartabs.cc/tabs/a/anberlin/foreign_language_tab.html ]
|---------------------------------------------------------------------|
|---------------------------------------------------------------------|
|---7-------------7-----6-----7-----4-------------7-----6-----7-------|
|---7-------------7-----7-----7-----4-------------7-----7-----7-------|
|---------------------------------------------------------------------|
|---------------------------------------------------------------------|
|                                                                     |
|---------------------------------------------------------------------|
|---------10------10------10------10------10------10------10------10--|
|---7-7-7---7-7-7---7-7-7---7-7-7---7-7-7---7-7-7---7-7-7---7-7-7-----|
|---------------------------------------------------------------------|
|---------------------------------------------------------------------|
|---------------------------------------------------------------------|
    . . . . . . . . . . . . . . . . . . . . . . . . . . . . . . . . 

|---------------------------------------------------------------------|
|---------------------------------------------------------------------|
|--7----7-----7---7----7---7----7-------------------------------------|
|--7----7-----7---7----5---5----5----7----7-----7---7----7---7----7---|
|--5----5-----5---5----5---5----5----7----7-----7---7----7---7----7---|
|--5----5-----5---5----5---5----5----7----7-----7---7----7---7----7---|

|---------------------------------------------------------------------|
|---------------------------------------------------------------------|
|--7----7-----7---7----7---7----7-------------------------------------|
|--7----7-----7---7----7---7----7----9----9-----9---9----9---9----9---|
|--5----5-----5---5----5---5----5----9----9-----9---9----9---9----9---|
|------------------------------------9----9-----9---9----9---9----9---|

|---------------------------------------------------------------------|
|---------------------------------------------------------------------|
|--7----7-----7---7----7---7----7-------------------------------------|
|--7----7-----7---7----5---5----5----7----7-----7---7----7---7----7\--|
|--5----5-----5---5----5---5----5----7----7-----7---7----7---7----7\--|
|--5----5-----5---5----5---5----5----7----7-----7---7----7---7----7\--|

                                Chorus

|---------------------------------------------------------------------|
|---------------------------------------------------------------------|
|---------------------------------------------------------------------|
|--2----2-----2---2----2---2----7----7----7-----7---7----7---7----7---|
|--2----2-----2---2----2---2----5----5----5-----5---5----5---5----5---|
|--2----2-----2---2----2---2----4----5----5-----5---5----5---5----5---|


|---------------------------------------------------------------------|
|---------------------------------------------------------------------|
|---------------------------------------------------------------------|
|--2----2-----2---2----2---2----7----7----7-----7---7----7---7----7---|
|--2----2-----2---2----2---2----5----5----5-----5---5----5---5----5---|
|--2----2-----2---2----2---2----4----5----5-----5---5----5---5----5---|


|---------------------------------------------------------------------|
|---------------------------------------------------------------------|
|---------------------------------------------------------------------|
|--2----2-----2---2----2---2----7----5----5-----5---5~-------5~-------|
|--2----2-----2---2----2---2----5----5----5-----5---5~-------5~-------|
|--2----2-----2---2----2---2----4----5----5-----5---5~-------5~-------|


|---------------------------------------------------------------------|
|---------------------------------------------------------------------|
|---------------------------------------------------------------------|
|--2----2-----2---2----2---2----7----7----7-----7---7----7---7----7---|
|--2----2-----2---2----2---2----5----5----5-----5---5----5---5----5---|
|--2----2-----2---2----2---2----4----5----5-----5---5----5---5----5---|


|---------------------------------------------------------------------|
|---------------------------------------------------------------------|
|---------------------------------------------------------------------|
|--2----2-----2---2----2---2----7----7----7-----7---7---7--7-7---7-7--|
|--2----2-----2---2----2---2----5----5----5-----5---5---7--7-7---7-7--|
|--2----2-----2---2----2---2----4----5----5-----5---5---7--7-7---7-7--|

                                Bridge

|---------------------------------------------------------------------|
|---------------------------------------------------------------------|
|--7----7-----7---7----7---7----6----6----6-----6---6----6---6----6---|
|--7----7-----7---7----7---7----7----7----7-----7---7----7---7----7---|
|--5----5-----5---5----5---5----4----4----4-----4---4----4---4----4---|
|---------------------------------------------------------------------|


|---------------------------------------------------------------------|
|---------------------------------------------------------------------|
|---------------------------------------------------------------------|
|--9----9-----9---9----9---9----5----5----5-----5---5----5---5----5---|
|--9----9-----9---9----9---9----5----5----5-----5---5----5---5----5---|
|--9----9-----9---9----9---9----5----5----5-----5---5----5---5----5---|


|---------------------------------------------------------------------|
|---------------------------------------------------------------------|
|--7----7-----7---7----7---7----6----6----6-----6---6----6---6----6---|
|--7----7-----7---7----7---7----7----7----7-----7---7----7---7----7---|
|--5----5-----5---5----5---5----4----4----4-----4---4----4---4----4---|
|---------------------------------------------------------------------|


|---------------------------------------------------------------------|
|---------------------------------------------------------------------|
|---------------------------------------------------------------------|
|--9----9-----9---9----9---9----7----7----7-----7---7----7---7----7---|
|--9----9-----9---9----9---9----5----5----5-----5---7----7---7----7---|
|--9----9-----9---9----9---9----5----5----5-----5---7----7---7----7---|


|---------------------------------------------------------------------|
|----------------------------------------10--------10-------10---7b---|
|---7-------------7-----6-----7-----7----------7--------7-------------|
|---7-------------7-----7-----7---------------------------------------|
|---------------------------------------------------------------------|
|---------------------------------------------------------------------|
|                                                                     |
|---10--10--10--10--10--10--10--10------------------------------------|
|-----10--10--10--10--10--10--10--10----------------------------------|
|---------------------------------------------------------------------|
|-----------------------------------9----9-----9---9----9---9----9----|
|-----------------------------------9----9-----9---9----9---9----9----|
|-----------------------------------9----9-----9---9----9---9----9----|
    . . . . . . . . . . . . . . . . 

|---------------------------------------------------------------------|
|-------10--------10-------10---7b------------------------------------|
|--7----------7--------7-------------9----7-----9---7----9---9----9---|
|---------------------------------------------------------------------|
|---------------------------------------------------------------------|
|---------------------------------------------------------------------|
|                                                                     |
|---------------------------------------------------------------------|
|---------------------------------------------------------------------|
|--7----7-----7---7----7---7----7-------------------------------------|
|--7----7-----7---7----7---7----7----7----7-----7---7----7---7----7---|
|--5----5-----5---5----5---5----5----7----7-----7---7----7---7----7---|
|--5----5-----5---5----5---5----5----7----7-----7---7----7---7----7---|

|---------------------------------------------------------------------|
|-------10--------10-------10---7b--------10--------10-------10---7b--|
|--7----------7--------7-------------7----------7--------7------------|
|---------------------------------------------------------------------|
|---------------------------------------------------------------------|
|---------------------------------------------------------------------|
|                                                                     |
|---------------------------------------------------------------------|
|---------------------------------------------------------------------|
|--7----7-----7---7----7---7----7-------------------------------------|
|--7----7-----7---7----7---7----7----9----9-----9---9----9---9----9---|
|--5----5-----5---5----5---5----5----9----9-----9---9----9---9----9---|
|------------------------------------9----9-----9---9----9---9----9---|


|---------------------------------------------------------------------|
|---------------------------------------------------------------------|
|--7~-----------------------------------------------------------------|
|---------------------------------------------------------------------|
|---------------------------------------------------------------------|
|---------------------------------------------------------------------|
|                                                                     |
|---------------------------------------------------------------------|
|---------------------------------------------------------------------|
|--7~-----------------------------------------------------------------|
|--7~-----------------------------------------------------------------|
|--5~-----------------------------------------------------------------|
|--5~-----------------------------------------------------------------|
Comments