Anberlin - Change The World Chords & Tabs

 

Change The World Chords & Tabs

Anberlin Chords & Tabs

Version: 3 Type: Tab 0 ratings
1 star 2 stars 3 stars 4 stars 5 stars
comments

Change The World Tab

   
Transcribed by Joel Lawson

 Words and Music by Anberlin

 

Gtr I (D A D G B E) - 'Untitled'
Gtr II (D A D G B E) - 'Untitled'
Gtr III (D A D G B E) - 'Untitled'


 Intro
  Q=84
  D5                        C5
 4/4
  Gtr I
  S S S S S S S S S S S S S S S S
|----------------------------------|
|----------------------------------|
|-7-7-7-7-7-7-7-7-7-7-7-7-7-5-5-5/-|
|-7-7-7-7-7-7-7-7-7-7-7-7-7-5-5-5/-|
|-5-5-5-5-5-5-5-5-5-5-5-5-5-3-3-3/-|
|----------------------------------|


  Bbsus2
   S  S  S  S  S  S  S  S  S  S  S  S S S S S
|----------------------------------------------|
|----------------------------------------------|
|-10-10-10-10-10-10-10-10-10-10-10-10-x-x-x-x--|
|-10-10-10-10-10-10-10-10-10-10-10-10-x-x-x-x--|
|--8--8--8--8--8--8--8--8--8--8--8--8-x-x-x-x--|
|--8--8--8--8--8--8--8--8--8--8--8--8-x-x-x-x--|


  N.C.D5 N.D5     N.C.D5  N.C.  D5 N.CD5     N.C.  D5
  S S Q  S Q  +S  S S E    S  S Q   S Q  +S   S  S E
|-----------------------|----------------------------|
|-----------------------|----------------------------|
|-7-7----7--------9-9---|-10-10----10--------10-10---|
|-----0----0--(0)-----0-|-------0-----0--(0)-------0-|
|-5-5-0--5-0--(0)-7-7-0-|--8--8-0---8-0--(0)--8--8-0-|
|-----0----0--(0)-----0-|-------0-----0--(0)-------0-|


  Bbsus2
   S  S  S  S  S  S  S  S  S  S  S  S  S  S  S  S
|--------------------------------------------------|
|--------------------------------------------------|
|-10-10-10-10-10-10-10-10-10-10-10-10-10-10-10-10--|
|-10-10-10-10-10-10-10-10-10-10-10-10-10-10-10-10--|
|--8--8--8--8--8--8--8--8--8--8--8--8--8--8--8--8--|
|--8--8--8--8--8--8--8--8--8--8--8--8--8--8--8--8--|


  N.C.D5 N.D5     N.C.D5  N.C.  D5 N.CD5     N.C.  D5
  S S Q  S Q  +S  S S E    S  S Q   S Q  +S   S  S E
|-----------------------|----------------------------|
|-----------------------|----------------------------|
|-7-7----7--------9-9---|-10-10----10--------10-10---|
|-----0----0--(0)-----0-|-------0-----0--(0)-------0-|
|-5-5-0--5-0--(0)-7-7-0-|--8--8-0---8-0--(0)--8--8-0-|
|-----0----0--(0)-----0-|-------0-----0--(0)-------0-|


  Bbsus2
   S  S  S  S  S  S  S  S  S  S  S  S  S  S  S  S
|--------------------------------------------------|
|--------------------------------------------------|
|-10-10-10-10-10-10-10-10-10-10-10-10-10-10-10-10--|
|-10-10-10-10-10-10-10-10-10-10-10-10-10-10-10-10--|
|--8--8--8--8--8--8--8--8--8--8--8--8--8--8--8--8--|
|--8--8--8--8--8--8--8--8--8--8--8--8--8--8--8--8--|


   Verse
    $
    N.C.
    Gtr I
     PM     PM-|      PM        PM     PM-|       PM
     S   S  S   S  S  S   S  S  S   S  S   S   S  S  S  S
||--------------------------------------------------------|
||o-------------------------------------------------------|
||------10---------9---------------12---------10-----9h10-|
||--(0)----(0)-(0)---(0)-10h12-(0)----(0)-(0)----(0)------|
||o-------------------------------------------------------|
||--------------------------------------------------------|


   PM     PM-|      PM        PM     PM-|       PM
   S   S  S   S  S  S   S  S  S   S  S   S   S  S  S  S
|--------------------------------------------------------|
|--------------------------------------------------------|
|-----10---------9---------------12---------10-----9h10--|
|-(0)----(0)-(0)---(0)-10h12-(0)----(0)-(0)----(0)-------|
|--------------------------------------------------------|
|--------------------------------------------------------|


   PM     PM-|      PM        PM     PM-|       PM
   S   S  S   S  S  S   S  S  S   S  S   S   S  S  S  S
|-------------------------------------------------------|
|-------------------------------------------------------|
|-----10---------9---------------12---------10-----9h10-|
|-(0)----(0)-(0)---(0)-10h12-(0)----(0)-(0)----(0)------|
|-------------------------------------------------------|
|-------------------------------------------------------|


  Bbsus2
   S  S  S  S  S  S  S  S  S  S  S  S  S  S  S  S
|--------------------------------------------------||
|-------------------------------------------------o||
|-10-10-10-10-10-10-10-10-10-10-10-10-10-10-10-10--||
|-10-10-10-10-10-10-10-10-10-10-10-10-10-10-10-10--||
|--8--8--8--8--8--8--8--8--8--8--8--8--8--8--8--8-o||
|--8--8--8--8--8--8--8--8--8--8--8--8--8--8--8--8--||


                                        To Coda
  F5/C
   S  S  S  S  S  S  S  S  S  S  S  S  S  S  S  S
|-------------------------------------------------|
|-------------------------------------------------|
|-10-10-10-10-10-10-10-10-10-10-10-10-10-10-10-10-|
|-10-10-10-10-10-10-10-10-10-10-10-10-10-10-10-10-|
|--8--8--8--8--8--8--8--8--8--8--8--8--8--8--8--8-|
|-10-10-10-10-10-10-10-10-10-10-10-10-10-10-10-10-|


  Bbsus2                                            Csus2
   S  S  S  S  S  S  S  S  S  S  S  S  S  S  S  S    S  S  S  S  S  S  S  S  S  S  S  S  e E
|-------------------------------------------------|--------------------------------------------|
|-------------------------------------------------|--------------------------------------------|
|-10-10-10-10-10-10-10-10-10-10-10-10-10-10-10-10-|--------------------------------------------|
|-10-10-10-10-10-10-10-10-10-10-10-10-10-10-10-10-|-12-12-12-12-12-12-12-12-12-12-12-12-12-----|
|--8--8--8--8--8--8--8--8--8--8--8--8--8--8--8--8-|-10-10-10-10-10-10-10-10-10-10-10-10-10-----|
|--8--8--8--8--8--8--8--8--8--8--8--8--8--8--8--8-|-10-10-10-10-10-10-10-10-10-10-10-10-10-----|


   Chorus
    Bbsus2
     S  S  S  S  S  S  S  S  S  S  S  S  S  S  S  S
||--------------------------------------------------|
||o-------------------------------------------------|
||--10-10-10-10-10-10-10-10-10-10-10-10-10-10-10-10-|
||--10-10-10-10-10-10-10-10-10-10-10-10-10-10-10-10-|
||o--8--8--8--8--8--8--8--8--8--8--8--8--8--8--8--8-|
||---8--8--8--8--8--8--8--8--8--8--8--8--8--8--8--8-|


  C/E
  S S S S S S S S S S S S S S S S
|----------------------------------|
|----------------------------------|
|-5-5-5-5-5-5-5-5-5-5-5-5-5-5-5-5--|
|-5-5-5-5-5-5-5-5-5-5-5-5-5-5-5-5--|
|-3-3-3-3-3-3-3-3-3-3-3-3-3-3-3-3--|
|-2-2-2-2-2-2-2-2-2-2-2-2-2-2-2-2--|


  Fsus2
  S S S S S S S S S S S S S S S S   S S S S S S S S S S S S S S S S
|---------------------------------|----------------------------------||
|---------------------------------|---------------------------------o||
|-5-5-5-5-5-5-5-5-5-5-5-5-5-5-5-5-|-5-5-5-5-5-5-5-5-5-5-5-5-5-5-5-5--||
|-5-5-5-5-5-5-5-5-5-5-5-5-5-5-5-5-|-5-5-5-5-5-5-5-5-5-5-5-5-5-5-5-5--||
|-3-3-3-3-3-3-3-3-3-3-3-3-3-3-3-3-|-3-3-3-3-3-3-3-3-3-3-3-3-3-3-3-3-o||
|-3-3-3-3-3-3-3-3-3-3-3-3-3-3-3-3-|-3-3-3-3-3-3-3-3-3-3-3-3-3-3-3-3--||


  Bbsus2
   S  S  S  S  S  S  S  S  S  S  S  S  S  S  S  S
|-------------------------------------------------|
|-------------------------------------------------|
|-10-10-10-10-10-10-10-10-10-10-10-10-10-10-10-10-|
|-10-10-10-10-10-10-10-10-10-10-10-10-10-10-10-10-|
|--8--8--8--8--8--8--8--8--8--8--8--8--8--8--8--8-|
|--8--8--8--8--8--8--8--8--8--8--8--8--8--8--8--8-|


  C/E
  S S S S S S S S S S S S S S S S
|---------------------------------|
|---------------------------------|
|-5-5-5-5-5-5-5-5-5-5-5-5-5-5-5-5-|
|-5-5-5-5-5-5-5-5-5-5-5-5-5-5-5-5-|
|-3-3-3-3-3-3-3-3-3-3-3-3-3-3-3-3-|
|-2-2-2-2-2-2-2-2-2-2-2-2-2-2-2-2-|


                                                      D.S. al Coda
  N.C.                    G5        N.C.                    G5
  S S S S S S S S S S S S S S S S   S S S S S S S S S S S S S S S S
|---------------------------------|---------------------------------|
|---------------------------------|---------------------------------|
|---------------------------------|---------------------------------|
|---------------------------------|---------------------------------|
|-3h5---------3h5---------5-5-5-5-|-3h5---------3h5---------5-5-5-5-|
|-----0h3-3-3-----0h3-3-3-5-5-5-5-|-----0h3-3-3-----0h3-3-3-5-5-5-5-|


  &
  Bbsus2
   S  S  S  S  S  S  S  S  S  S  S  S  S  S  S  S
|-------------------------------------------------|
|-------------------------------------------------|
|-10-10-10-10-10-10-10-10-10-10-10-10-10-10-10-10-|
|-10-10-10-10-10-10-10-10-10-10-10-10-10-10-10-10-|
|--8--8--8--8--8--8--8--8--8--8--8--8--8--8--8--8-|
|--8--8--8--8--8--8--8--8--8--8--8--8--8--8--8--8-|


  N.D5N.D5N.CD5N.C.
  E S E S  E S  S  S  S  E E
|-----------------------------|
|-----------------------------|
|-7---9---10---12-12-12-12----|
|-----------------------------|
|-5-0-7-0--8-0-10-10-10-10----|
|---0---0----0----------------|


   Chorus
    Bbsus2
     S  S  S  S  S  S  S  S  S  S  S  S  S  S  S  S
||--------------------------------------------------|
||o-------------------------------------------------|
||--10-10-10-10-10-10-10-10-10-10-10-10-10-10-10-10-|
||--10-10-10-10-10-10-10-10-10-10-10-10-10-10-10-10-|
||o--8--8--8--8--8--8--8--8--8--8--8--8--8--8--8--8-|
||---8--8--8--8--8--8--8--8--8--8--8--8--8--8--8--8-|


  C/E
  S S S S S S S S S S S S S S S S
|----------------------------------|
|----------------------------------|
|-5-5-5-5-5-5-5-5-5-5-5-5-5-5-5-5--|
|-5-5-5-5-5-5-5-5-5-5-5-5-5-5-5-5--|
|-3-3-3-3-3-3-3-3-3-3-3-3-3-3-3-3--|
|-2-2-2-2-2-2-2-2-2-2-2-2-2-2-2-2--|


  Fsus2
  S S S S S S S S S S S S S S S S   S S S S S S S S S S S S S S S S
|---------------------------------|----------------------------------||
|---------------------------------|---------------------------------o||
|-5-5-5-5-5-5-5-5-5-5-5-5-5-5-5-5-|-5-5-5-5-5-5-5-5-5-5-5-5-5-5-5-5--||
|-5-5-5-5-5-5-5-5-5-5-5-5-5-5-5-5-|-5-5-5-5-5-5-5-5-5-5-5-5-5-5-5-5--||
|-3-3-3-3-3-3-3-3-3-3-3-3-3-3-3-3-|-3-3-3-3-3-3-3-3-3-3-3-3-3-3-3-3-o||
|-3-3-3-3-3-3-3-3-3-3-3-3-3-3-3-3-|-3-3-3-3-3-3-3-3-3-3-3-3-3-3-3-3--||


  Bbsus2
   S  S  S  S  S  S  S  S  S  S  S  S  S  S  S  S
|-------------------------------------------------|
|-------------------------------------------------|
|-10-10-10-10-10-10-10-10-10-10-10-10-10-10-10-10-|
|-10-10-10-10-10-10-10-10-10-10-10-10-10-10-10-10-|
|--8--8--8--8--8--8--8--8--8--8--8--8--8--8--8--8-|
|--8--8--8--8--8--8--8--8--8--8--8--8--8--8--8--8-|


  C/E
  S S S S S S S S S S S S S S S S
|---------------------------------|
|---------------------------------|
|-5-5-5-5-5-5-5-5-5-5-5-5-5-5-5-5-|
|-5-5-5-5-5-5-5-5-5-5-5-5-5-5-5-5-|
|-3-3-3-3-3-3-3-3-3-3-3-3-3-3-3-3-|
|-2-2-2-2-2-2-2-2-2-2-2-2-2-2-2-2-|


  N.C.                    G5        N.C.                    G5
  S S S S S S S S S S S S S S S S   S S S S S S S S S S S S S S S S
|---------------------------------|---------------------------------|
|---------------------------------|---------------------------------|
|---------------------------------|---------------------------------|
|---------------------------------|---------------------------------|
|-3h5---------3h5---------5-5-5-5-|-3h5---------3h5---------5-5-5-5-|
|-----0h3-3-3-----0h3-3-3-5-5-5-5-|-----0h3-3-3-----0h3-3-3-5-5-5-5-|

[ Tab from: http://www.guitartabs.cc/tabs/a/anberlin/change_the_world_tab_ver_3.html ]
   Breakdown
    N.C.D5 N.D5     N.C.D5  N.C.  D5 N.CD5     N.C.  D5
    Gtr I
    S S Q  S Q  +S  S S E    S  S Q   S Q  +S   S  S E
||------------------------|----------------------------|
||o-----------------------|----------------------------|
||--7-7----7--------9-9---|-10-10----10--------10-10---|
||------0----0--(0)-----0-|-------0-----0--(0)-------0-|
||o-5-5-0--5-0--(0)-7-7-0-|--8--8-0---8-0--(0)--8--8-0-|
||------0----0--(0)-----0-|-------0-----0--(0)-------0-|
|
|   Gtr II
|   S S Q  S Q  +S  S S E    S  S Q   S Q  +S   S  S E
||------------------------|----------------------------|
||o-----------------------|----------------------------|
||--7-7----7--------5-5---|--7--7-----7--------10-10---|
||------0----0--(0)-----0-|-------0-----0--(0)-------0-|
||o-5-5-0--5-0--(0)-3-3-0-|--5--5-0---5-0--(0)--8--8-0-|
||------0----0--(0)-----0-|-------0-----0--(0)-------0-|


  Bbsus2
   S  S  S  S  S  S  S  S  S  S  S  S  S  S  S  S
|--------------------------------------------------||
|-------------------------------------------------o||
|-10-10-10-10-10-10-10-10-10-10-10-10-10-10-10-10--||
|-10-10-10-10-10-10-10-10-10-10-10-10-10-10-10-10--||
|--8--8--8--8--8--8--8--8--8--8--8--8--8--8--8--8-o||
|--8--8--8--8--8--8--8--8--8--8--8--8--8--8--8--8--||
|
|  S  S  S  S  S  S  S  S  S  S  S  S  S  S  S  S
|--------------------------------------------------||
|-------------------------------------------------o||
|-10-10-10-10-10-10-10-10-10-10-10-10-10-10-10-10--||
|-10-10-10-10-10-10-10-10-10-10-10-10-10-10-10-10--||
|--8--8--8--8--8--8--8--8--8--8--8--8--8--8--8--8-o||
|--8--8--8--8--8--8--8--8--8--8--8--8--8--8--8--8--||


  C/E
  S S S S S S S S S S S S S S S S
|---------------------------------|
|---------------------------------|
|---------------------------------|
|-5-5-5-5-5-5-5-5-5-5-5-5-5-5-5-5-|
|-3-3-3-3-3-3-3-3-3-3-3-3-3-3-3-3-|
|-2-2-2-2-2-2-2-2-2-2-2-2-2-2-2-2-|
|
| S S S S S S S S S S S S S S S S
|---------------------------------|
|---------------------------------|
|---------------------------------|
|-5-5-5-5-5-5-5-5-5-5-5-5-5-5-5-5-|
|-3-3-3-3-3-3-3-3-3-3-3-3-3-3-3-3-|
|-2-2-2-2-2-2-2-2-2-2-2-2-2-2-2-2-|


  F/A        Bb5
   Q          H.
|---------------------------------------------|
|---------------------------------------------|
|---------------------------------------------|
|--7----------8-------------------------------|
|--8----------8-------------------------------|
|--7----------8-------------------------------|
|
|  S S  S  S  S S  S  S  S S  S  S  S S  S  S
|---------------------------------------------|
|---------------------------------------------|
|-10p9-------10p9-------10p9-------10p9-------|
|------12p10------12p10------12p10------12p10-|
|---------------------------------------------|
|---------------------------------------------|


  C/E        Fsus2
   Q          H.
|---------------------------------------------|
|---------------------------------------------|
|---------------------------------------------|
|--5----------5-------------------------------|
|--3----------3-------------------------------|
|--2----------3-------------------------------|
|
|  S S  S  S  S S  S  S  S S  S  S  S S  S  S
|---------------------------------------------|
|---------------------------------------------|
|-10p9-------10p9-------10p9-------10p9-------|
|------12p10------12p10------12p10------12p10-|
|---------------------------------------------|
|---------------------------------------------|


  F/A        Bb5
   Q          H.
|---------------------------------------------|
|---------------------------------------------|
|---------------------------------------------|
|--7----------8-------------------------------|
|--8----------8-------------------------------|
|--7----------8-------------------------------|
|
|  S S  S  S  S S  S  S  S S  S  S  S S  S  S
|---------------------------------------------|
|---------------------------------------------|
|-10p9-------10p9-------10p9-------10p9-------|
|------12p10------12p10------12p10------12p10-|
|---------------------------------------------|
|---------------------------------------------|


  F5
   S  S  S  S  S  S  S  S  S  S  S  S  S  S  S  S
|-------------------------------------------------|
|-------------------------------------------------|
|-------------------------------------------------|
|--3--3--3--3--3--3--3--3--3--3--3--3--3--3--3--3-|
|--3--3--3--3--3--3--3--3--3--3--3--3--3--3--3--3-|
|--3--3--3--3--3--3--3--3--3--3--3--3--3--3--3--3-|
|
|  S  S  S  S  S  S  S  S  S  S  S  S  S  S  S  S
|-------------------------------------------------|
|-13-13-13-13-13-13-13-13-13-13-13-13-13-13-13-13-|
|-------------------------------------------------|
|-------------------------------------------------|
|-------------------------------------------------|
|-------------------------------------------------|


  D5
   S  S  S  S  S  S  S  S  S  S  S  S  S  S  S  S
|-------------------------------------------------|
|-------------------------------------------------|
|-------------------------------------------------|
|--0--0--0--0--0--0--0--0--0--0--0--0--0--0--0--0-|
|--0--0--0--0--0--0--0--0--0--0--0--0--0--0--0--0-|
|--0--0--0--0--0--0--0--0--0--0--0--0--0--0--0--0-|
|
|  S  S  S  S  S  S  S  S  S  S  S  S  S  S  S  S
|-------------------------------------------------|
|-13-13-13-13-13-13-13-13-13-13-13-13-13-13-13-13-|
|-------------------------------------------------|
|-------------------------------------------------|
|-------------------------------------------------|
|-------------------------------------------------|


  Bb5
   S  S  S  S  S  S  S  S  S  S  S  S  S  S  S  S
|-------------------------------------------------|
|-------------------------------------------------|
|-------------------------------------------------|
|--8--8--8--8--8--8--8--8--8--8--8--8--8--8--8--8-|
|--8--8--8--8--8--8--8--8--8--8--8--8--8--8--8--8-|
|--8--8--8--8--8--8--8--8--8--8--8--8--8--8--8--8-|
|
|  S  S  S  S  S  S  S  S  S  S  S  S  S  S  S  S
|-------------------------------------------------|
|-13-13-13-13-13-13-13-13-13-13-13-13-13-13-13-13-|
|-------------------------------------------------|
|-------------------------------------------------|
|-------------------------------------------------|
|-------------------------------------------------|


  Csus2                      N.C.Csus2
                             PM|
   S  S  S  S  S  S  S  S  E S S  E E
|-------------------------------------|
|-------------------------------------|
|-------------------------------------|
|-12-12-12-12-12-12-12-12-12-----12---|
|-10-10-10-10-10-10-10-10-10-----10---|
|-10-10-10-10-10-10-10-10-10-0-0-10---|
|
|                            PM|
|  S  S  S  S  S  S  S  S  E S S  E E
|-------------------------------------|
|-------------------------------------|
|-------------------------------------|
|-12-12-12-12-12-12-12-12-12-----12---|
|-10-10-10-10-10-10-10-10-10-----10---|
|-10-10-10-10-10-10-10-10-10-0-0-10---|


   Chorus
    Bbsus2
    Gtr I
     S  S  S  S  S  S  S  S  S  S  S  S  S  S  S  S
||--------------------------------------------------|
||o-------------------------------------------------|
||--10-10-10-10-10-10-10-10-10-10-10-10-10-10-10-10-|
||--10-10-10-10-10-10-10-10-10-10-10-10-10-10-10-10-|
||o--8--8--8--8--8--8--8--8--8--8--8--8--8--8--8--8-|
||---8--8--8--8--8--8--8--8--8--8--8--8--8--8--8--8-|


  C/E
  S S S S S S S S S S S S S S S S
|----------------------------------|
|----------------------------------|
|-5-5-5-5-5-5-5-5-5-5-5-5-5-5-5-5--|
|-5-5-5-5-5-5-5-5-5-5-5-5-5-5-5-5--|
|-3-3-3-3-3-3-3-3-3-3-3-3-3-3-3-3--|
|-2-2-2-2-2-2-2-2-2-2-2-2-2-2-2-2--|


  Fsus2
  S S S S S S S S S S S S S S S S   S S S S S S S S S S S S S S S S
|---------------------------------|----------------------------------||
|---------------------------------|---------------------------------o||
|-5-5-5-5-5-5-5-5-5-5-5-5-5-5-5-5-|-5-5-5-5-5-5-5-5-5-5-5-5-5-5-5-5--||
|-5-5-5-5-5-5-5-5-5-5-5-5-5-5-5-5-|-5-5-5-5-5-5-5-5-5-5-5-5-5-5-5-5--||
|-3-3-3-3-3-3-3-3-3-3-3-3-3-3-3-3-|-3-3-3-3-3-3-3-3-3-3-3-3-3-3-3-3-o||
|-3-3-3-3-3-3-3-3-3-3-3-3-3-3-3-3-|-3-3-3-3-3-3-3-3-3-3-3-3-3-3-3-3--||


  Bbsus2
   S  S  S  S  S  S  S  S  S  S  S  S  S  S  S  S
|-------------------------------------------------|
|-------------------------------------------------|
|-10-10-10-10-10-10-10-10-10-10-10-10-10-10-10-10-|
|-10-10-10-10-10-10-10-10-10-10-10-10-10-10-10-10-|
|--8--8--8--8--8--8--8--8--8--8--8--8--8--8--8--8-|
|--8--8--8--8--8--8--8--8--8--8--8--8--8--8--8--8-|


  C/E
  S S S S S S S S S S S S S S S S
|---------------------------------|
|---------------------------------|
|-5-5-5-5-5-5-5-5-5-5-5-5-5-5-5-5-|
|-5-5-5-5-5-5-5-5-5-5-5-5-5-5-5-5-|
|-3-3-3-3-3-3-3-3-3-3-3-3-3-3-3-3-|
|-2-2-2-2-2-2-2-2-2-2-2-2-2-2-2-2-|


  Fsus2                             G5
  S S S S S S S S S S S S S S S S   S S S S S S S S S S S S S S S S
|---------------------------------|---------------------------------|
|---------------------------------|---------------------------------|
|-5-5-5-5-5-5-5-5-5-5-5-5-5-5-5-5-|---------------------------------|
|-5-5-5-5-5-5-5-5-5-5-5-5-5-5-5-5-|-5-5-5-5-5-5-5-5-5-5-5-5-5-5-5-5-|
|-3-3-3-3-3-3-3-3-3-3-3-3-3-3-3-3-|-5-5-5-5-5-5-5-5-5-5-5-5-5-5-5-5-|
|-3-3-3-3-3-3-3-3-3-3-3-3-3-3-3-3-|-5-5-5-5-5-5-5-5-5-5-5-5-5-5-5-5-|


  D5
  W          +W
|----------|--------*|
|----------|--------*|
|----------|--------*|
|-0--------|-(0)----*|
|-0--------|-(0)----*|
|-0--------|-(0)----*|




--------------------------------------------------------------------------------


Duration Legend
---------------
W - whole; H - half; Q - quarter; E - 8th; S - 16th; T - 32nd; X - 64th; a - acciaccatura
+ - note tied to previous; . - note dotted; .. - note double dotted
Uncapitalized letters represent notes that are staccato (1/2 duration)
Irregular groupings are notated above the duration line
Duration letters will always appear directly above the note/fret number it represents the
duration for.  Duration letters with no fret number below them represent rests.  Multi-
bar rests are notated in the form Wxn, where n is the number of bars to rest for.  Low
melody durations appear below the staff

Tablature Legend
----------------
 h   - hammer-on
 p   - pull-off
 b   - bend
 pb  - pre-bend
 r   - bend release (if no number after the r, then release immediately)
 /\  - slide into or out of (from/to "nowhere")
 s   - legato slide
 S   - shift slide
 - natural harmonic
[n]  - artificial harmonic
n(n) - tapped harmonic
 ~   - vibrato
 tr  - trill
 T   - tap
 TP  - trem. picking
 PM  - palm muting
\n/  - tremolo bar dip; n = amount to dip
 \n  - tremolo bar down
 n/  - tremolo bar up
/n\  - tremolo bar inverted dip
 =   - hold bend; also acts as connecting device for hammers/pulls
 <> - volume swell (louder/softer)
 x   - on rhythm slash represents muted slash
 o   - on rhythm slash represents single note slash

Misc Legend
-----------
 |  - bar
||  - double bar
||o - repeat start
o|| - repeat end
*|  - double bar (ending)
 :  - bar (freetime)
 $  - Segno
 &  - Coda
Tempo markers -  = BPM(8/16=s8/s16), where s8 = swing 8ths, s16 = swing 16ths


Comments