Anberlin - Change The World Chords & Tabs

 

Change The World Chords & Tabs

Anberlin Chords & Tabs

Version: 1 Type: Tab 0 ratings
1 star 2 stars 3 stars 4 stars 5 stars
comments

Change The World Tab

Change the World - Anberlin

DROP D TUNING
Intro: part1
D|-----------------------------------------------------------------------------
A|-5--5--5--5--5--5--5--5--5--5--5--5--3--3--3--3--3--3--8---8---8---8---8---8-
D|-7--7--7--7--7--7--7--7--7--7--7--7--5--5--5--5--5--5--10--10--10--10--10--10
G|-7--7--7--7--7--7--7--7--7--7--7--7--5--5--5--5--5--5--10--10--10--10--10--10
B|-----------------------------------------------------------------------------
e|-----------------------------------------------------------------------------
 
  part 2
D|-----------0---0-----0-------0-----0--------0--8--8--8--8--8--8--8--8--8-----
A|-x-x-x-5-5-0-5-0-7-7-0-8--8--0--8--0--8--8--0--8--8--8--8--8--8--8--8--8--2x-
D|-x-x-x-7-7---7---9-9---10-10----10----10-10----10-10-10-10-10-10-10-10-10----
G|-x-x-x-7-7---7---9-9---10-10----10----10-10----10-10-10-10-10-10-10-10-10----
B|-----------------------------------------------------------------------------
e|-----------------------------------------------------------------------------

Verse: palm mute the picking

D|------------------------------8--8--8--8--8--8--8--8--8--8-------------------
A|------------------------------8--8--8--8--8--8--8--8--8--8-------------------
D|----------------then do this--10-10-10-10-10-10-10-10-10-10------------------
G|------------------------------10-10-10-10-10-10-10-10-10-10------------------
B|-6-5---6-5-6--4x-------------------------------------------------------------
e|-----3-----------------------------------------------------------------------

[ Tab from: http://www.guitartabs.cc/tabs/a/anberlin/change_the_world_tab.html ]
D|--------------------8--------------------------------------------------------
A|--------------------8---15x--------------------------------------------------
D|--------------------10-------------------------------------------------------
G|--------------------10-------------------------------------------------------
B|-6-5---6-5-6--4x-------------------------------------------------------------
e|-----3-----------------------------------------------------------------------

Chorus:

D|-8-------10-------8-------3-------3-------8-------3-------3-------8------3---
A|-8--10x--10--10x--8--10x--3--10x--3--15x--8--10x--3--10x--3--15x--8--10x-310x
D|-10------12-------10------5-------3-------10------5-------3-------10-----5---
G|-10------12-------10------5---------------10------5---------------10-----5---
B|-----------------------------------------------------------------------------
e|-----------------------------------------------------------------------------

sorry i dont know the solo between the chorus and second verse

verse 2: sasme as verse one

Start the 2nd chorus like this

D|-8-------8---10---12---13----------------------------------------------------
A|-8--10x--8---10---12---13----------------------------------------------------
D|-10------10--12---14---15----------------------------------------------------
G|-10------10--12---14---15----------------------------------------------------
B|-----------------------------------------------------------------------------
e|-----------------------------------------------------------------------------
 and the rest of the chorus is the same as the 1st chorus

then play part 2 of the intro

then the chorus twice
Comments