Anberlin - Cadence Chords & Tabs

 

Cadence Chords & Tabs

Anberlin Chords & Tabs

Version: 1 Type: Tab 0 ratings
1 star 2 stars 3 stars 4 stars 5 stars
comments

Cadence Tab

Tabbed By: Julian Stevenson
Email: jaws_da_man@hotmail.com

Drop D Tuning

Intro/Verse:
e|--------------------------------------------------------------------------|
B|--------------------------------------------------------------------------|
G|--------------------------------------------------------------------------|
D|---6-7----6-7---0~--------------------------------------------------------|
A|---4-4----4-4---0~--------------------------------------------------------|
D|---4-4----4-4---0~--------------------------------------------------------|

Chorus:
e|--------------------------------------------------------------------------|
B|--------------------------------------------------------------------------|
G|--------------------------------------------------------------------------|
D|---7---4---0--------------------------------------------------------------|
A|---7---4---0--------------------------------------------------------------|
D|---7---4---0--------------------------------------------------------------|

Verse
Chorus
[ Tab from: http://www.guitartabs.cc/tabs/a/anberlin/cadence_tab.html ]
Bridge:
e|--------------------------------------------------------------------------|
B|--------------------------------------------------------------------------|
G|--------------------------------------------------------------------------|
D|---2~---4~---0~-----------6-7---------------------------------------------|
A|---2~---4~---0~-----------4-4---------------------------------------------|
D|---2~---4~---0~-----------4-4---------------------------------------------|

Rhythm Guitar During Solo:
e|--------------------------------------------------------------------------|
B|--------------------------------------------------------------------------|
G|--------------------------------------------------------------------------|
D|---4~---0~---4~---0~----2-4~-2-4-6~-4-6-7-9-0---2~---4~-------------------|
A|---4~---0~---4~---0~----2-4~-2-4-6~-4-6-7-9-0---2~---4~-------------------|
D|---4~---0~---4~---0~----2-4~-2-4-6~-4-6-7-9-0---2~---4~-------------------|

Chorus

End:
e|--------------------------------------------------------------------------|
B|--------------------------------------------------------------------------|
G|--------------------------------------------------------------------------|
D|---6-7--------------------------------------------------------------------|
A|---4-4--------------------------------------------------------------------|
D|---4-4--------------------------------------------------------------------|

And thats it, enjoy all, and keep rocking!!
Comments