Anberlin - A Day Late Chords & Tabs

 

A Day Late Chords & Tabs

Anberlin Chords & Tabs

Version: 1 Type: Tab 0 ratings
1 star 2 stars 3 stars 4 stars 5 stars
comments

A Day Late Tab

   
-------------------------------------------------------------------------------
			    A Day Late - Anberlin
-------------------------------------------------------------------------------


Transcribed by falloutboy682

 Music by Anberlin

 

Gtr I (E A D G B E) - 'Untitled'
Gtr II (E A D G B E) - 'Untitled'


 Intro
  Q=170
  N.C.
 4/4
  Gtr I
  PM------------------------------------------------------------------|
  E E E E E E E E   E E E E E E E E   E E E E E E E E   E E E E E E E E
|-----------------|-----------------|-----------------|------------------|
|-----------------|-----------------|-----------------|------------------|
|-----------------|-----------------|-----------------|------------------|
|-4-4-4-4-4-4-4-4-|-6-6-6-6-6-6-6-6-|-7-7-7-7-7-7-7-7-|-7-7-7-7-7-7-7-7--|
|-----------------|-----------------|-----------------|------------------|
|-----------------|-----------------|-----------------|------------------|
|
| Gtr II
| PM------------------------------------------------------------------|
| E E E E E E E E   E E E E E E E E   E E E E E E E E   E E E E E E E E
|-----------------|-----------------|-----------------|------------------|
|-----------------|-----------------|-----------------|------------------|
|-----------------|-----------------|-----------------|------------------|
|-4-4-4-4-4-4-4-4-|-----------------|-----------------|------------------|
|-----------------|-2-2-2-2-2-2-2-2-|-4-4-4-4-4-4-4-4-|-4-4-4-4-4-4-4-4--|
|-----------------|-----------------|-----------------|------------------|


  PM----------------------------------------------------------|
  E E E E E E E E   E E E E E E E E   E E E E E E E E   E E E E q  Q
|-----------------|-----------------|-----------------|----------------|
|-----------------|-----------------|-----------------|----------------|
|-----------------|-----------------|-----------------|----------------|
|-4-4-4-4-4-4-4-4-|-6-6-6-6-6-6-6-6-|-7-7-7-7-7-7-7-7-|-7-7-7-7-7------|
|-----------------|-----------------|-----------------|----------------|
|-----------------|-----------------|-----------------|----------------|
|
| PM----------------------------------------------------------|
| E E E E E E E E   E E E E E E E E   E E E E E E E E   E E E E q  Q
|-----------------|-----------------|-----------------|----------------|
|-----------------|-----------------|-----------------|----------------|
|-----------------|-----------------|-----------------|----------------|
|-4-4-4-4-4-4-4-4-|-----------------|-----------------|----------------|
|-----------------|-2-2-2-2-2-2-2-2-|-4-4-4-4-4-4-4-4-|-4-4-4-4-4------|
|-----------------|-----------------|-----------------|----------------|


   Verse
    Esus2/B     C#m7                    Esus4/A
    E E E E E E E E   E E E E E E E E   E E E E E E E E   E E E E E E E E
||--0-0-x-0-0-x-0-0-|-x-0-0-x-0-0-0-0-|-0-0-x-0-0-x-0-0-|-x-0-0-x-0-0-0-0--||
||o-0-0-x-0-0-x-0-0-|-x-0-0-x-0-0-0-0-|-0-0-x-0-0-x-0-0-|-x-0-0-x-0-0-0-0-o||
||--4-4-x-4-4-x-6-6-|-x-6-6-x-6-6-6-6-|-2-2-x-2-2-x-2-2-|-x-2-2-x-2-2-2-2--||
||--4-4-x-4-4-x-6-6-|-x-6-6-x-6-6-6-6-|-2-2-x-2-2-x-2-2-|-x-2-2-x-2-2-2-2--||
||o-2-2-x-2-2-x-4-4-|-x-4-4-x-4-4-4-4-|-0-0-x-0-0-x-0-0-|-x-0-0-x-0-0-0-0-o||
||------------------|-----------------|-----------------|------------------||


    E E E E +H       E E E E +H       E E E E +H       Q.   Q.   Q
||--------0-(0)----|-------0-(0)----|-------0-(0)----|-0-------------||
||o---4------------|---4------------|---4------------|------0-------o||
||--4---4----------|-4---4----------|-4---4----------|-----------2---||
||-----------------|----------------|----------------|---------------||
||o----------------|----------------|----------------|--------------o||
||-----------------|----------------|----------------|---------------||


  B5                C#5               A5
  PM------------------------------------------------------------------|
  E E E E E E E E   E E E E E E E E   E E E E E E E E   E E E E E E E E
|-----------------|-----------------|-----------------|------------------|
|-4-----5-----4---|---5-----4---5---|-4-----5-----4---|---5-----4---5----|
|---4-4---4-4---4-|-4---4-4---4---4-|---4-4---4-4---4-|-4---4-4---4---4--|
|-----------------|-----------------|-----------------|------------------|
|-----------------|-----------------|-----------------|------------------|
|-----------------|-----------------|-----------------|------------------|
|
| Gtr II
| PM------------------------------------------------------------------|
| E E E E E E E E   E E E E E E E E   E E E E E E E E   E E E E E E E E
|-----------------|-----------------|-----------------|------------------|
|-----------------|-----------------|-----------------|------------------|
|-----------------|-----------------|-----------------|------------------|
|-4-4-4-4-4-4-4-4-|-6-6-6-6-6-6-6-6-|-2-2-2-2-2-2-2-2-|-2-2-2-2-2-2-2-2--|
|-2-2-2-2-2-2-2-2-|-4-4-4-4-4-4-4-4-|-0-0-0-0-0-0-0-0-|-0-0-0-0-0-0-0-0--|
|-----------------|-----------------|-----------------|------------------|


  B5                C#5               A5                B5    A5
  PM------------------------------|
  E E E E E E E E   E E E E E E E E   W          +H     E E E E
|-----------------|-----------------|----------|-----------------|
|-4-----5-----4---|---5-----4---5---|-5--------|-(5)----4-4-4-5--|
|---4-4---4-4---4-|-4---4-4---4---4-|-4--------|-(4)----4-4-4-4--|
|-----------------|-----------------|----------|-----------------|
|-----------------|-----------------|----------|-----------------|
|-----------------|-----------------|----------|-----------------|
|
| PM------------------------------|
| E E E E E E E E   E E E E E E E E   W          +H     E E E E
|-----------------|-----------------|----------|-----------------|
|-----------------|-----------------|----------|-----------------|
|-----------------|-----------------|-2--------|-(2)----4-4-4-2--|
|-4-4-4-4-4-4-4-4-|-6-6-6-6-6-6-6-6-|-2--------|-(2)----4-4-4-2--|
|-2-2-2-2-2-2-2-2-|-4-4-4-4-4-4-4-4-|-0--------|-(0)----2-2-2-0--|
|-----------------|-----------------|----------|-----------------|


                      B5    A5                      B5
  +W           +H     E E E E   +W           +H     E E E E
|------------|----------------|------------|-----------------||
|-(5)--------|-(5)----4-4-4-5-|-(5)--------|-(5)----4-4-4-4--||
|-(4)--------|-(4)----4-4-4-4-|-(4)--------|-(4)----4-4-4-4--||
|------------|----------------|------------|-----------------||
|------------|----------------|------------|-----------------||
|------------|----------------|------------|-----------------||
|
| +W           +H     E E E E   +W           +H     E E E E
|------------|----------------|------------|-----------------||
|------------|----------------|------------|-----------------||
|-(2)--------|-(2)----4-4-4-2-|-(2)--------|-(2)----4-4-4-4--||
|-(2)--------|-(2)----4-4-4-2-|-(2)--------|-(2)----4-4-4-4--||
|-(0)--------|-(0)----2-2-2-0-|-(0)--------|-(0)----2-2-2-2--||
|------------|----------------|------------|-----------------||


   Chorus
    $
    E5                                  B5
    E E E E E E E E   E E E E E E E E   E E E E E E E E   E E E E E E E E
||------------------|-----------------|-----------------|-----------------|
||o-7-7-7-5-5-5-4-4-|-4-5-5-5-7-7-5-5-|-7-7-7-5-5-5-4-4-|-4-5-5-5-7-7-5-5-|
||--4-4-4-4-4-4-4-4-|-4-4-4-4-4-4-4-4-|-4-4-4-4-4-4-4-4-|-4-4-4-4-4-4-4-4-|
||------------------|-----------------|-----------------|-----------------|
||o-----------------|-----------------|-----------------|-----------------|
||------------------|-----------------|-----------------|-----------------|
|
|   E E E E E E E E   E E E E E E E E   E E E E E E E E   E E E E E E E E
||------------------|-----------------|-----------------|-----------------|
||o-----------------|-----------------|-----------------|-----------------|
||------------------|-----------------|-4-4-4-4-4-4-4-4-|-4-4-4-4-4-4-4-4-|
||--2-2-2-2-2-2-2-2-|-2-2-2-2-2-2-2-2-|-4-4-4-4-4-4-4-4-|-4-4-4-4-4-4-4-4-|
||o-2-2-2-2-2-2-2-2-|-2-2-2-2-2-2-2-2-|-2-2-2-2-2-2-2-2-|-2-2-2-2-2-2-2-2-|
||--0-0-0-0-0-0-0-0-|-0-0-0-0-0-0-0-0-|-----------------|-----------------|


                                                                To Coda
  A5                                      C#5   B5         C#5   B5
  E E E E E E E E   E E E E E E E E   +E  E E E Q  E E   E E E E E E E E
|-----------------|-----------------|------------------|-------------------||
|-7-7-7-5-5-5-4-4-|-4-5-5-5-7-7-5-5-|-(5)-7-7-7-5--5-5-|-x-4-4-4-5-5-5-5--o||
|-4-4-4-4-4-4-4-4-|-4-4-4-4-4-4-4-4-|-(4)-4-4-4-4--4-4-|-x-4-4-4-4-4-4-4---||
|-----------------|-----------------|------------------|-------------------||
|-----------------|-----------------|------------------|------------------o||
|-----------------|-----------------|------------------|-------------------||
|
| E E E E E E E E   E E E E E E E E   +E  E E E Q  E E   E E E E E E E E
|-----------------|-----------------|------------------|-------------------||
|-----------------|-----------------|------------------|------------------o||
|-2-2-2-2-2-2-2-2-|-2-2-2-2-2-2-2-2-|-(2)-6-6-6-4--4-4-|-x-6-6-6-4-4-4-4---||
|-2-2-2-2-2-2-2-2-|-2-2-2-2-2-2-2-2-|-(2)-6-6-6-4--4-4-|-x-6-6-6-4-4-4-4---||
|-0-0-0-0-0-0-0-0-|-0-0-0-0-0-0-0-0-|-(0)-4-4-4-2--2-2-|-x-4-4-4-2-2-2-2--o||
|-----------------|-----------------|------------------|-------------------||


 Verse
  C#m7                                  Esus2/B
    PM|   PM|   PM--|     PM|             PM|   PM|   PM--|     PM|
  E E E E E E E E    E  E E E E E E E   E E E E E E E E    E  E E E E E E E
|-0-----0-----0---|-----0-----0-0-0-0-|-0-----0-----0---|-----0-----0-0-0-0--|
|-0-----0-----0---|-----0-----0-0-0-0-|-0-----0-----0---|-----0-----0-0-0-0--|
|-6-----6-----6---|-----6-----6-6-6-6-|-4-----4-----4---|-----4-----4-4-4-4--|
|-6-----6-----6---|-----6-----6-6-6-6-|-4-----4-----4---|-----4-----4-4-4-4--|
|-4-4-4-4-4-4-4-4-|--4--4-4-4-4-4-4-4-|-2-2-2-2-2-2-2-2-|--2--2-2-2-2-2-2-2--|
|-----------------|-------------------|-----------------|--------------------|
|
| W                 +W                  W                 +W
|-----------------|-------------------|-----------------|--------------------|
|-----------------|-------------------|-----------------|--------------------|
|-----------------|-------------------|-----------------|--------------------|
|-6---------------|-(6)---------------|-4---------------|-(4)----------------|
|-4---------------|-(4)---------------|-2---------------|-(2)----------------|
|-----------------|-------------------|-----------------|--------------------|


  Esus4/A
   H.      +E  E   +E  Q  E +E    +E  E  E
|-^0-------(0)-0-|-(0)----0-(0)---(0)-0-(0)-|
|-^0-------(0)---|-----0--4-(4)b6r(4)-------|
|-^2-------(2)---|--------------------6--4--|
|-^2-------(2)---|--------------------------|
|-^0-------(0)---|--------------------------|
|----------------|--------------------------|


  C#m7                                Esus2/B
  Gtrs I, II
    PM|   PM|   PM--|   PM|             PM|   PM|   PM--|   PM|
  E E E E E E E E   E E E E E E E E   E E E E E E E E   E E E E E E E E
|-0-----0-----0---|---0-----0-0-0-0-|-0-----0-----0---|---0-----0-0-0-0--|
|-0-----0-----0---|---0-----0-0-0-0-|-0-----0-----0---|---0-----0-0-0-0--|
|-6-----6-----6---|---6-----6-6-6-6-|-4-----4-----4---|---4-----4-4-4-4--|
|-6-----6-----6---|---6-----6-6-6-6-|-4-----4-----4---|---4-----4-4-4-4--|
|-4-4-4-4-4-4-4-4-|-4-4-4-4-4-4-4-4-|-2-2-2-2-2-2-2-2-|-2-2-2-2-2-2-2-2--|
|-----------------|-----------------|-----------------|------------------|


  Esus4/A
   H.      +E  E   +E  Q  E +E    +E  E  E
|-^0-------(0)-0-|-(0)----0-(0)---(0)-0-(0)-|
|-^0-------(0)---|-----0--4-(4)b6r(4)-------|
|-^2-------(2)---|--------------------6--4--|
|-^2-------(2)---|--------------------------|
|-^0-------(0)---|--------------------------|
|----------------|--------------------------|

[ Tab from: http://www.guitartabs.cc/tabs/a/anberlin/a_day_late_tab.html ]
  B5                C#5               A5
  Gtr I
  PM------------------------------------------------------------------|
  E E E E E E E E   E E E E E E E E   E E E E E E E E   E E E E E E E E
|-----------------|-----------------|-----------------|------------------|
|-4-----5-----4---|---5-----4---5---|-4-----5-----4---|---5-----4---5----|
|---4-4---4-4---4-|-4---4-4---4---4-|---4-4---4-4---4-|-4---4-4---4---4--|
|-----------------|-----------------|-----------------|------------------|
|-----------------|-----------------|-----------------|------------------|
|-----------------|-----------------|-----------------|------------------|
|
| Gtr II
| PM------------------------------------------------------------------|
| E E E E E E E E   E E E E E E E E   E E E E E E E E   E E E E E E E E
|-----------------|-----------------|-----------------|------------------|
|-----------------|-----------------|-----------------|------------------|
|-----------------|-----------------|-----------------|------------------|
|-4-4-4-4-4-4-4-4-|-6-6-6-6-6-6-6-6-|-2-2-2-2-2-2-2-2-|-2-2-2-2-2-2-2-2--|
|-2-2-2-2-2-2-2-2-|-4-4-4-4-4-4-4-4-|-0-0-0-0-0-0-0-0-|-0-0-0-0-0-0-0-0--|
|-----------------|-----------------|-----------------|------------------|


                                                             D.S. al Coda
  B5                C#5               A5     B5    C#5       B5    E
  PM------------------------------|
  E E E E E E E E   E E E E E E E E   H.           Q     +H        E E E E
|-----------------|-----------------|------------------|--------------------|
|-4-----5-----4---|---5-----4---5---|-5------------5---|-(5)----------------|
|---4-4---4-4---4-|-4---4-4---4---4-|-4------------4---|-(4)-------9-9-9-9--|
|-----------------|-----------------|------------------|--------------------|
|-----------------|-----------------|------------------|-----------7-7-7-7--|
|-----------------|-----------------|------------------|--------------------|
|
| PM------------------------------|
| E E E E E E E E   E E E E E E E E   E  E E E E E E E    E  E E E E E E E
|-----------------|-----------------|------------------|--------------------|
|-----------------|-----------------|------------------|--------------------|
|-----------------|-----------------|------------------|-----------9-9-9-9--|
|-4-4-4-4-4-4-4-4-|-6-6-6-6-6-6-6-6-|-2--2-2-4-4-4-6-6-|--6--4-4-4----------|
|-2-2-2-2-2-2-2-2-|-4-4-4-4-4-4-4-4-|-0--0-0-2-2-2-4-4-|--4--2-2-2-7-7-7-7--|
|-----------------|-----------------|------------------|--------------------|


 Breakdown
  &
  C#5   B5    A5      B5
  E E E E E E E E   E E E E E E E E
|-----------------|-----------------|
|-5-5-5-4-4-4-5-5-|-5-4-4-4-4-4-4-4-|
|-4-4-4-4-4-4-4-4-|-4-4-4-4-4-4-4-4-|
|-----------------|-----------------|
|-----------------|-----------------|
|-----------------|-----------------|
|
| E E E E E E E E   E E E E E E E E
|-----------------|-----------------|
|-----------------|-----------------|
|-6-6-6-4-4-4-2-2-|-2-4-4-4-4-4-4-4-|
|-6-6-6-4-4-4-2-2-|-2-4-4-4-4-4-4-4-|
|-4-4-4-2-2-2-0-0-|-0-2-2-2-2-2-2-2-|
|-----------------|-----------------|


  C#5                                 E5
  E E E E E E E E   E E E E E E E E   E E E E E E E E   E E E E E E E E
|-----------------|-----------------|-----------------|------------------|
|-5-5-5-5-5-5-5-5-|-5-5-5-5-5-5-5-5-|-5-5-5-5-5-5-5-5-|-5-5-5-5-5-5-5-5--|
|-4-4-4-4-4-4-4-4-|-4-4-4-4-4-4-4-4-|-4-4-4-4-4-4-4-4-|-4-4-4-4-4-4-4-4--|
|-----------------|-----------------|-----------------|------------------|
|-----------------|-----------------|-----------------|------------------|
|-----------------|-----------------|-----------------|------------------|
|
| E E E E E E E E   E E E E E E E E   E E E E E E E E   E E E E E E E E
|-----------------|-----------------|-----------------|------------------|
|-----------------|-----------------|-----------------|------------------|
|-6-6-6-6-6-6-6-6-|-6-6-6-6-6-6-6-6-|-----------------|------------------|
|-6-6-6-6-6-6-6-6-|-6-6-6-6-6-6-6-6-|-2-2-2-2-2-2-2-2-|-2-2-2-2-2-2-2-2--|
|-4-4-4-4-4-4-4-4-|-4-4-4-4-4-4-4-4-|-2-2-2-2-2-2-2-2-|-2-2-2-2-2-2-2-2--|
|-----------------|-----------------|-0-0-0-0-0-0-0-0-|-0-0-0-0-0-0-0-0--|


  A5                                  B5
                                                          <
  E E E E E E E E   E E E E E E E E   E E E E Q  Q    +E  E E E E E E E
|-----------------|-----------------|---------------|--------------------|
|-5-5-5-5-5-5-5-5-|-5-5-5-5-5-5-5-5-|-5-5-5-5----5--|-(5)-5-5-5-5-5-5-5--|
|-4-4-4-4-4-4-4-4-|-4-4-4-4-4-4-4-4-|-4-4-4-4----4--|-(4)-4-4-4-4-4-4-4--|
|-----------------|-----------------|---------------|--------------------|
|-----------------|-----------------|---------------|--------------------|
|-----------------|-----------------|---------------|--------------------|
|
|                                                         <
| E E E E E E E E   E E E E E E E E   E E E E Q  Q    +E  E E E E E E E
|-----------------|-----------------|---------------|--------------------|
|-----------------|-----------------|---------------|--------------------|
|-2-2-2-2-2-2-2-2-|-2-2-2-2-2-2-2-2-|-4-4-4-4----4--|-(4)-4-4-4-4-4-4-4--|
|-2-2-2-2-2-2-2-2-|-2-2-2-2-2-2-2-2-|-4-4-4-4----4--|-(4)-4-4-4-4-4-4-4--|
|-0-0-0-0-0-0-0-0-|-0-0-0-0-0-0-0-0-|-2-2-2-2----2--|-(2)-2-2-2-2-2-2-2--|
|-----------------|-----------------|---------------|--------------------|


 Interlude
  N.C.
  PM------------------------------------------------------------------|
  E E E E E E E E   E E E E E E E E   E E E E E E E E   E E E E E E E E
|-----------------|-----------------|-----------------|------------------|
|-5-5-5-5-5-5-5-5-|-5-5-5-7-7-7-9-9-|-4-4-4-4-4-4-4-4-|-4-4-4-5-5-5-7-7--|
|-----------------|-----------------|-----------------|------------------|
|-----------------|-----------------|-----------------|------------------|
|-----------------|-----------------|-----------------|------------------|
|-----------------|-----------------|-----------------|------------------|
|
| PM------------------------------------------------------------------|
| E E E E E E E E   E E E E E E E E   E E E E E E E E   E E E E E E E E
|-----------------|-----------------|-----------------|------------------|
|-----------------|-----------------|-----------------|------------------|
|-----------------|-----------------|-----------------|------------------|
|-----------------|-----------------|-----------------|------------------|
|-4-4-4-4-4-4-4-4-|-4-4-4-6-6-6-7-7-|-2-2-2-2-2-2-2-2-|-2-2-2-6-6-6-7-7--|
|-----------------|-----------------|-----------------|------------------|


  Esus4/A
  H.      E E   +E  q  E +E    +E  E  E
|-0-------0-0-|-(0)-0--0-(0)---(0)-0-(0)-|
|-0-------0-0-|-(0)-0--4-(4)b6r(4)-------|
|-2-------2-2-|-(2)-2--------------6--4--|
|-2-------2-2-|-(2)-2--------------------|
|-0-------0-0-|-(0)-0--------------------|
|-------------|--------------------------|


  N.C.
  PM-------------------------------------------------------------------|
  E E E E E E E E   E E E E E E E E    E E E E E E E E   E E E E E E E E
|-----------------|-----------------|-/7-7-7-7-7-7-7-7-|-5-5-5-4-4-4------|
|-5-5-5-5-5-5-5-5-|-5-5-5-7-7-7-9-9-|------------------|-------------7-7--|
|-----------------|-----------------|------------------|------------------|
|-----------------|-----------------|------------------|------------------|
|-----------------|-----------------|------------------|------------------|
|-----------------|-----------------|------------------|------------------|
|
| Gtr II
| PM-------------------------------------------------------------------|
| E E E E E E E E   E E E E E E E E    E E E E E E E E   E E E E E E E E
|-----------------|-----------------|------------------|------------------|
|-----------------|-----------------|------------------|------------------|
|-----------------|-----------------|------------------|------------------|
|-----------------|-----------------|------------------|------------------|
|-4-4-4-4-4-4-4-4-|-4-4-4-6-6-6-7-7-|--2-2-2-2-2-2-2-2-|-2-2-2-6-6-6-7-7--|
|-----------------|-----------------|------------------|------------------|


  Esus4/A
  W          +W
|-0--------|-(0)----||
|-0--------|-(0)----||
|-2--------|-(2)----||
|-2--------|-(2)----||
|-0--------|-(0)----||
|----------|--------||


   Out-Chorus
    E5                                  B5
    E E E E E E E E   E E E E E E E E   E E E E E E E E   E E E E E E E E
||------------------|-----------------|-----------------|-----------------|
||o-7-7-7-5-5-5-4-4-|-4-5-5-5-7-7-5-5-|-7-7-7-5-5-5-4-4-|-4-5-5-5-7-7-5-5-|
||--4-4-4-4-4-4-4-4-|-4-4-4-4-4-4-4-4-|-4-4-4-4-4-4-4-4-|-4-4-4-4-4-4-4-4-|
||------------------|-----------------|-----------------|-----------------|
||o-----------------|-----------------|-----------------|-----------------|
||------------------|-----------------|-----------------|-----------------|
|
|   Gtr II
|   E E E E E E E E   E E E E E E E E   E E E E E E E E   E E E E E E E E
||------------------|-----------------|-----------------|-----------------|
||o-----------------|-----------------|-----------------|-----------------|
||------------------|-----------------|-4-4-4-4-4-4-4-4-|-4-4-4-4-4-4-4-4-|
||--2-2-2-2-2-2-2-2-|-2-2-2-2-2-2-2-2-|-4-4-4-4-4-4-4-4-|-4-4-4-4-4-4-4-4-|
||o-2-2-2-2-2-2-2-2-|-2-2-2-2-2-2-2-2-|-2-2-2-2-2-2-2-2-|-2-2-2-2-2-2-2-2-|
||--0-0-0-0-0-0-0-0-|-0-0-0-0-0-0-0-0-|-----------------|-----------------|


  A5                                      C#5   B5         C#5   B5
  E E E E E E E E   E E E E E E E E   +E  E E E Q  E E   E E E E E E E E   4x
|-----------------|-----------------|------------------|-------------------||
|-7-7-7-5-5-5-4-4-|-4-5-5-5-7-7-5-5-|-(5)-7-7-7-5--5-5-|-x-4-4-4-5-5-5-5--o||
|-4-4-4-4-4-4-4-4-|-4-4-4-4-4-4-4-4-|-(4)-4-4-4-4--4-4-|-x-4-4-4-4-4-4-4---||
|-----------------|-----------------|------------------|-------------------||
|-----------------|-----------------|------------------|------------------o||
|-----------------|-----------------|------------------|-------------------||
|
| E E E E E E E E   E E E E E E E E   +E  E E E Q  E E   E E E E E E E E   4x
|-----------------|-----------------|------------------|-------------------||
|-----------------|-----------------|------------------|------------------o||
|-2-2-2-2-2-2-2-2-|-2-2-2-2-2-2-2-2-|-(2)-6-6-6-4--4-4-|-x-6-6-6-4-4-4-4---||
|-2-2-2-2-2-2-2-2-|-2-2-2-2-2-2-2-2-|-(2)-6-6-6-4--4-4-|-x-6-6-6-4-4-4-4---||
|-0-0-0-0-0-0-0-0-|-0-0-0-0-0-0-0-0-|-(0)-4-4-4-2--2-2-|-x-4-4-4-2-2-2-2--o||
|-----------------|-----------------|------------------|-------------------||




--------------------------------------------------------------------------------


Duration Legend
---------------
W - whole; H - half; Q - quarter; E - 8th; S - 16th; T - 32nd; X - 64th; a - acciaccatura
+ - note tied to previous; . - note dotted; .. - note double dotted
Uncapitalized letters represent notes that are staccato (1/2 duration)
Irregular groupings are notated above the duration line
Duration letters will always appear directly above the note/fret number it represents the
duration for.  Duration letters with no fret number below them represent rests.  Multi-
bar rests are notated in the form Wxn, where n is the number of bars to rest for.  Low
melody durations appear below the staff

Tablature Legend
----------------
 h   - hammer-on
 p   - pull-off
 b   - bend
 pb  - pre-bend
 r   - bend release (if no number after the r, then release immediately)
 /\  - slide into or out of (from/to "nowhere")
 s   - legato slide
 S   - shift slide
 - natural harmonic
[n]  - artificial harmonic
n(n) - tapped harmonic
 ~   - vibrato
 tr  - trill
 T   - tap
 TP  - trem. picking
 PM  - palm muting
\n/  - tremolo bar dip; n = amount to dip
 \n  - tremolo bar down
 n/  - tremolo bar up
/n\  - tremolo bar inverted dip
 =   - hold bend; also acts as connecting device for hammers/pulls
 <> - volume swell (louder/softer)
 x   - on rhythm slash represents muted slash
 o   - on rhythm slash represents single note slash

Misc Legend
-----------
 |  - bar
||  - double bar
||o - repeat start
o|| - repeat end
*|  - double bar (ending)
 :  - bar (freetime)
 $  - Segno
 &  - Coda
Tempo markers -  = BPM(8/16=s8/s16), where s8 = swing 8ths, s16 = swing 16ths
Comments