Anb - First Shot Chords & Tabs

 

First Shot Chords & Tabs

Anb Chords & Tabs

Version: 1 Type: Tab 0 ratings
1 star 2 stars 3 stars 4 stars 5 stars
comments

First Shot Tab

3--3---2--2--2--3p2--------------------------
3--3---3--3--3---------1--1--x--1--1--x--1---
0--0---2--2--2---------0--0--x--0--0--x--0---
0--0-------------------2--2--x--2--2--x--2---   PLAY 4X
2--2-------------------3--3--x--3--3--x--3---
3--3-----------------------------------------

after you play this...
[ Tab from: http://www.guitartabs.cc/tabs/a/anb/first_shot_tab.html ]
--------------------------------------------------------------------
--------------------------------------------------------------------
------------------7--7--7--x--x--5--5--x--x--5--5--x--x--5----------
5--5--x--x--x--x--7--7--7--x--x--5--5--x--x--5--5--x--x--5----------
5--5--x--x--x--x--5--5--5--x--x--3--3--x--x--3--3--x--x--3----------
3--3--x--x--x--x----------------------------------------------------



solo riff:


---------------------------------------------------------------------------------
---------------------------------------------------------------------------------
----------------------12---------------------------------------------------
12b--12b--12p--10--10----12b--10-10--10-10--10-10---10-10--------------
---------------------------------------------------------------------------------
---------------------------------------------------------------------------------
Comments