Anavrin - Prison Chords & Tabs

 

Prison Chords & Tabs

Anavrin Chords & Tabs

Version: 1 Type: Tab 0 ratings
1 star 2 stars 3 stars 4 stars 5 stars
comments

Prison Tab

e---------------------------------------------------------------------------|
b---------------------------------------------------------------------------|
g---------------------------------------------------------------------------|
d--------2---------2------------2---------------------------------------x4--|
a--------0---------0------------0-------------------------------------------|
e---22-------0h2------0h2---2-----------------------------------------------|


em em g em em g strumin goes down down up down up down x4

then back to the top

then  (^) = bend up
[ Tab from: http://www.guitartabs.cc/tabs/a/anavrin/prison_tab.html ]
e----------------------------------------------------------------------------|
b---55---7^-----5---7^-----55---7^-------------------------------------------|
g----------------------------------------------------------------------------|
d--------------------------------------------------------------------x4------|
a----------------------------------------------------------------------------|
e----------------------------------------------------------------------------|

then back up to the cords

now bar cords


e----------------------------------------------------------------------------|
b----------------------------------------------------------------------------|
g----------------------------------------------------------------------------|
d--3-3--5*---3--5*--3-3---5--------------------------------------------------|
a--3-3--3*---3--3*--1-1---3--------------------------------------------------|
e--1-1--3*---1--3*--1-1---3--------------------------------------------------|

on the last stroke let it ring
Comments