Anathema - Silent Enigma Chords & Tabs

 

Silent Enigma Chords & Tabs

Anathema Chords & Tabs

Version: 1 Type: Bass Tab 0 ratings
1 star 2 stars 3 stars 4 stars 5 stars
comments

Silent Enigma Bass Tab

G||--------------|--------------|--------------|--------------|--------------|
D||--------------|--------------|--------------|--------------|--------------|
A||--------------|--------------|--------------|--------------|--------------|
E||--------------|--------------|--------------|--------------|--------------|

                                                                           

                                                                             
--------------|------------------------------|--------------|---------------|
--------------|------------------------------|--------------|---------------|
--------------|------------------------------|--------------|--0------------|
--------------|------------------------------|--------------|---------------|


                                                
---------------|---------------|---------------|
---------------|---------------|---------------|
--0------------|--0------------|--0------------|
---------------|---------------|---------------|


                                                                          
-----------------------------------------|---------------|---------------|
-----------------------------------------|---------------|---------------|
--3------------3------------3------------|--3------------|--0------------|
-----------------------------------------|---------------|---------------|


                                                                    
---------------|---------------|---------------|-------------------|
---------------|---------------|---------------|-------------------|
--0------------|--0------------|--0------------|--0------0-0-0--0--|
---------------|---------------|---------------|-------------------|


                                                                     
--------------------|---------------|---------------|---------------|
--------------------|---------------|---------------|---------------|
--0--0--0--0--0--0--|--2------------|--2------------|--0------------|
--------------------|---------------|---------------|---------------|


                                                                         
-----------|------------------|--------------------|--------------------|
-----------|------------------|--------------------|--------------------|
--0--------|------0--0--0--0--|--0--0--2--2--2--2--|--2--2--0--0--0--0--|
-----------|------------------|--------------------|--------------------|


                                                               
--------------------|--------------------|--------------------|
--------------------|--------------------|--------------------|
--0--0--0--0--0--0--|--0--0--2--2--2--2--|--2--2--0--0--0--0--|
--------------------|--------------------|--------------------|


                                                               
--------------------|--------------------|--------------------|
--------------------|--------------------|--------------------|
--0--0--0--0--0--0--|--0--0--2--2--2--2--|--2--2--0--0--0--0--|
--------------------|--------------------|--------------------|


                                                               
--------------------|--------------------|--------------------|
--------------------|--------------------|--------------------|
--0--0--0--0--0--0--|--0--0--2--2--2--2--|--2--2--0--0--0--0--|
--------------------|--------------------|--------------------|


                                                                      
----------------------|----------------|--------------|--------------|
----------------------|----------------|--------------|--------------|
--0--0--0--0--0--0----|--0/-2----------|--------------|--------------|
----------------------|----------------|--------------|--------------|


                                                                           
--------------|--------------|--------------|--------------|--------------|
--------------|--------------|--------------|--------------|--------------|
--------------|--------------|--------------|--------------|--------------|
--------------|--------------|--------------|--------------|--------------|


                                                                           
--------------|--------------|--------------|--------------|--------------|
--------------|--------------|--------------|--------------|--------------|
--------------|--------------|--------------|--------------|--------------|
--------------|--------------|--------------|--------------|--------------|


                                                                           
--------------|--------------|--------------|--------------|--------------|
--------------|--------------|--------------|--------------|--------------|
--------------|--------------|--------------|--------------|--------------|
--------------|--------------|--------------|--------------|--------------|


                                                                             
--------------|--------------|--------------|----------------|--------------|
--------------|--------------|--------------|----------------|--------------|
--------------|--------------|--------------|----------------|--------------|
--------------|--------------|--------------|--0--------1----|--------------|

[ Tab from: http://www.guitartabs.cc/tabs/a/anathema/silent_enigma_btab.html ]
                                                                
----------------|--------------|----------------|--------------|
----------------|--------------|----------------|--------------|
----------------|--------------|----------------|--------------|
--0--------1----|--------------|--0--------1----|--------------|


                                                                
----------------|--------------|----------------|--------------|
----------------|--------------|----------------|--------------|
----------------|--------------|--0-------------|--------------|
--0--------1----|--------------|-----------1----|--------------|


                                                                
----------------|--------------|----------------|--------------|
----------------|--------------|----------------|--------------|
--0-------------|--------------|--0-------------|--------------|
-----------1----|--------------|-----------1----|--------------|


                                                                
----------------|--------------|----------------|--------------|
----------------|--------------|----------------|--------------|
--0-------------|--------------|----------------|--------------|
-----------1----|--------------|--0--------1----|--------------|


                                                                
----------------|--------------|----------------|--------------|
----------------|--------------|----------------|--------------|
----------------|--------------|----------------|--------------|
--0--------1----|--------------|--0--------1----|--------------|


                                                                
----------------|--------------|----------------|--------------|
----------------|--------------|----------------|--------------|
----------------|--------------|----------------|--------------|
--0--------1----|--------------|--0--------1----|--------------|


                                                                        
----------------|--------------|---------------|--------|--------------|
----------------|--------------|---------------|--------|--------------|
----------------|--------------|---------------|--------|--------------|
--0--------1----|--------------|--0------------|--------|--------------|


                                                                           
--------------|--------------|--------------|--------------|--------------|
--------------|--------------|--------------|--------------|--------------|
--------------|--------------|--------------|--------------|--------------|
--------------|--------------|--------------|--------------|--------------|


                                                                              
--------------|--------------------|--------------------|--------------------|
--------------|--------------------|--------------------|--------------------|
--------------|--0--0--0--0--0--0--|--0--0--2--2--2--2--|--2--2--0--0--0--0--|
--------------|--------------------|--------------------|--------------------|


                                                               
--------------------|--------------------|--------------------|
--------------------|--------------------|--------------------|
--0--0--0--0--0--0--|--0--0--2--2--2--2--|--2--2--0--0--0--0--|
--------------------|--------------------|--------------------|


                                                               
--------------------|--------------------|--------------------|
--------------------|--------------------|--------------------|
--0--0--0--0--0--0--|--0--0--2--2--2--2--|--2--2--0--0--0--0--|
--------------------|--------------------|--------------------|


                                                               
--------------------|--------------------|--------------------|
--------------------|--------------------|--------------------|
--0--0--0--0--0--0--|--0--0--2--2--2--2--|--2--2--0--0--0--0--|
--------------------|--------------------|--------------------|


                                                               
--------------------|--------------------|--------------------|
--------------------|--------------------|--------------------|
--0--0--0--0--0--0--|--0--0--2--2--2--2--|--2--2--0--0--0--0--|
--------------------|--------------------|--------------------|


                                                               
--------------------|--------------------|--------------------|
--------------------|--------------------|--------------------|
--0--0--0--0--0--0--|--0--0--2--2--2--2--|--2--2--0--0--0--0--|
--------------------|--------------------|--------------------|


                                                                    
--------------------|---------------|---------------|--------------|
--------------------|---------------|---------------|--------------|
--0--0--0--0--0--0--|--0------------|------2--------|--------------|
--------------------|---------------|---------------|--------------|


                                                                           
--------------|--------------|--------------|--------------|--------------|
--------------|--------------|--------------|--------------|--------------|
--------------|--------------|--------------|--------------|--------------|
--------------|--------------|--------------|--------------|--------------|


                
--------------||
--------------||
--------------||
--------------||
Comments