Anathema - Pitless Chords & Tabs

 

Pitless Chords & Tabs

Anathema Chords & Tabs

Version: 1 Type: Bass Tab 0 ratings
1 star 2 stars 3 stars 4 stars 5 stars
comments

Pitless Bass Tab

G||--------------------------|------------------------|
D||--2--2--2--2--2--2--2--2--|----2--2--2--2--2--2/---|
A||--------------------------|------------------------|
E||--------------------------|------------------------|


                                                                               
--------------------------|------------------------|--------------------------|
--5--5--5--5--5--5--5--5--|----5--5--5--5--5--5/---|--1--1--1--1--1--1--1--1--|
--------------------------|------------------------|--------------------------|
--------------------------|------------------------|--------------------------|


                                                                             
------------------------|--------------------------|------------------------|
----1--1--1--1--1--1----|--1--1--1--1--1--1--1--1--|----1--1--1--1--1--1----|
------------------------|--------------------------|------------------------|
------------------------|--------------------------|------------------------|


                                                                               
--------------------------|------------------------|--------------------------|
--2--2--2--2--2--2--2--2--|----2--2--2--2--2--2/---|--5--5--5--5--5--5--5--5--|
--------------------------|------------------------|--------------------------|
--------------------------|------------------------|--------------------------|


                                                                             
------------------------|--------------------------|------------------------|
----5--5--5--5--5--5/---|--1--1--1--1--1--1--1--1--|----1--1--1--1--1--1----|
------------------------|--------------------------|------------------------|
------------------------|--------------------------|------------------------|


                                                                               
--------------------------|------------------------|--------------------------|
--1--1--1--1--1--1--1--1--|----1--1--1--1--1--1----|--2--2--2--2--2--2--2--2--|
--------------------------|------------------------|--------------------------|
--------------------------|------------------------|--------------------------|


                                                                             
------------------------|--------------------------|------------------------|
----2--2--2--2--2--2/---|--5--5--5--5--5--5--5--5--|----5--5--5--5--5--5/---|
------------------------|--------------------------|------------------------|
------------------------|--------------------------|------------------------|


                                                                               
--------------------------|------------------------|--------------------------|
--1--1--1--1--1--1--1--1--|----1--1--1--1--1--1----|--1--1--1--1--1--1--1--1--|
--------------------------|------------------------|--------------------------|
--------------------------|------------------------|--------------------------|


                                                                             
------------------------|--------------------------|------------------------|
----1--1--1--1--1--1----|--2--2--2--2--2--2--2--2--|----2--2--2--2--2--2/---|
------------------------|--------------------------|------------------------|
------------------------|--------------------------|------------------------|


                                                                               
--------------------------|------------------------|--------------------------|
--5--5--5--5--5--5--5--5--|----5--5--5--5--5--5/---|--1--1--1--1--1--1--1--1--|
--------------------------|------------------------|--------------------------|
--------------------------|------------------------|--------------------------|


                                                                             
------------------------|--------------------------|------------------------|
----1--1--1--1--1--1----|--1--1--1--1--1--1--1--1--|----1--1--1--1--1--1----|
------------------------|--------------------------|------------------------|
------------------------|--------------------------|------------------------|


                                                                               
--------------------------|------------------------|--------------------------|
--------------------------|------------------------|--------------------------|
--3--3--3--3--3--3--3--3--|----3--3--3--3--3--3----|--3--3--3--3--3--3--3--3--|
--------------------------|------------------------|--------------------------|


                                                                             
------------------------|--------------------------|------------------------|
------------------------|--------------------------|------------------------|
----3--3--3--3--3--3----|--2--2--2--2--2--2--2--2--|----2--2--2--2--2--2----|
------------------------|--------------------------|------------------------|


                                                                                
--------------------------|-------------------------|--------------------------|
--------------------------|-------------------------|--------------------------|
--2--2--2--2--2--2--2--2--|----2--2--0--0-----------|--3--3--3--3--3--3--3--3--|
--------------------------|----------------3--3--2--|--------------------------|


                                                                             
------------------------|--------------------------|------------------------|
------------------------|--------------------------|------------------------|
----3--3--3--3--3--3----|--3--3--3--3--3--3--3--3/-|----6--6--6--6--6--6----|
------------------------|--------------------------|------------------------|


                                                                               
--------------------------|------------------------|--------------------------|
--2--2--2--2--2--2--2--2--|----2--2--2--2--2--2/---|--5--5--5--5--5--5--5--5--|
--------------------------|------------------------|--------------------------|
--------------------------|------------------------|--------------------------|


                                                                             
------------------------|--------------------------|------------------------|
----5--5--5--5--5--5/---|--1--1--1--1--1--1--1--1--|----1--1--1--1--1--1----|
------------------------|--------------------------|------------------------|
------------------------|--------------------------|------------------------|


                                                                               
--------------------------|------------------------|--------------------------|
--1--1--1--1--1--1--1--1--|----1--1--1--1--1--1----|--2--2--2--2--2--2--2--2--|
--------------------------|------------------------|--------------------------|
--------------------------|------------------------|--------------------------|


                                                                             
------------------------|--------------------------|------------------------|
----2--2--2--2--2--2/---|--5--5--5--5--5--5--5--5--|----5--5--5--5--5--5/---|
------------------------|--------------------------|------------------------|
------------------------|--------------------------|------------------------|

[ Tab from: http://www.guitartabs.cc/tabs/a/anathema/pitless_btab.html ]
                                                                               
--------------------------|------------------------|--------------------------|
--1--1--1--1--1--1--1--1--|----1--1--1--1--1--1----|--1--1--1--1--1--1--1--1--|
--------------------------|------------------------|--------------------------|
--------------------------|------------------------|--------------------------|


                                                                             
------------------------|--------------------------|------------------------|
----1--1--1--1--1--1----|--------------------------|------------------------|
------------------------|--3--3--3--3--3--3--3--3--|----3--3--3--3--3--3----|
------------------------|--------------------------|------------------------|


                                                                               
--------------------------|------------------------|--------------------------|
--------------------------|------------------------|--------------------------|
--3--3--3--3--3--3--3--3--|----3--3--3--3--3--3----|--2--2--2--2--2--2--2--2--|
--------------------------|------------------------|--------------------------|


                                                                              
------------------------|--------------------------|-------------------------|
------------------------|--------------------------|-------------------------|
----2--2--2--2--2--2----|--2--2--2--2--2--2--2--2--|----2--2--0--0-----------|
------------------------|--------------------------|----------------3--3--2--|


                                                                               
--------------------------|------------------------|--------------------------|
--------------------------|------------------------|--------------------------|
--3--3--3--3--3--3--3--3--|----3--3--3--3--3--3----|--3--3--3--3--3--3--3--3/-|
--------------------------|------------------------|--------------------------|


                                                                
------------------------|-------------------|------------------|
------------------------|-------------------|------------------|
----6--6--6--6--6--6----|-------------------|------------------|
------------------------|--0----------------|------------------|


                                                                              
-------------------|------------------|-------------------|------------------|
-------------------|------------------|-------------------|------------------|
-------------------|------------------|--2----------------|------------------|
--0----------------|------------------|-------------------|------------------|


                                                                              
-------------------|------------------|-------------------|------------------|
-------------------|------------------|-------------------|------------------|
--2----------------|------------------|-------------------|------------------|
-------------------|------------------|--0----------------|------------------|


                                                             
-------------------|------------------|---------------------|
-------------------|------------------|---------------------|
-------------------|------------------|--2--2--------2------|
--0----------------|------------------|---------------------|


                                                                             
----------------------|---------------------|-------------------------------|
----------------------|---------------------|--2-2-2-2-2-2-2-2-2-2-2-2-2----|
--2--2--------2--2----|--2--2--------2------|-------------------------------|
----------------------|---------------------|-------------------------------|


                                                                               
--------------------------|------------------------|--------------------------|
--2--2--2--2--2--2--2--2--|----2--2--2--2--2--2/---|--5--5--5--5--5--5--5--5--|
--------------------------|------------------------|--------------------------|
--------------------------|------------------------|--------------------------|


                                                                             
------------------------|--------------------------|------------------------|
----5--5--5--5--5--5/---|--1--1--1--1--1--1--1--1--|----1--1--1--1--1--1----|
------------------------|--------------------------|------------------------|
------------------------|--------------------------|------------------------|


                                                                               
--------------------------|------------------------|--------------------------|
--1--1--1--1--1--1--1--1--|----1--1--1--1--1--1----|--2--2--2--2--2--2--2--2--|
--------------------------|------------------------|--------------------------|
--------------------------|------------------------|--------------------------|


                                                                             
------------------------|--------------------------|------------------------|
----2--2--2--2--2--2/---|--5--5--5--5--5--5--5--5--|----5--5--5--5--5--5/---|
------------------------|--------------------------|------------------------|
------------------------|--------------------------|------------------------|


                                                                               
--------------------------|------------------------|--------------------------|
--1--1--1--1--1--1--1--1--|----1--1--1--1--1--1----|--1--1--1--1--1--1--1--1--|
--------------------------|------------------------|--------------------------|
--------------------------|------------------------|--------------------------|


                                                                             
------------------------|--------------------------|------------------------|
----1--1--1--1--1--1----|--------------------------|------------------------|
------------------------|--3--3--3--3--3--3--3--3--|----3--3--3--3--3--3----|
------------------------|--------------------------|------------------------|


                                                                               
--------------------------|------------------------|--------------------------|
--------------------------|------------------------|--------------------------|
--3--3--3--3--3--3--3--3--|----3--3--3--3--3--3----|--2--2--2--2--2--2--2--2--|
--------------------------|------------------------|--------------------------|


                                                                              
------------------------|--------------------------|-------------------------|
------------------------|--------------------------|-------------------------|
----2--2--2--2--2--2----|--2--2--2--2--2--2--2--2--|----2--2--0--0-----------|
------------------------|--------------------------|----------------3--3--2--|


                                                                               
--------------------------|------------------------|--------------------------|
--------------------------|------------------------|--------------------------|
--3--3--3--3--3--3--3--3--|----3--3--3--3--3--3----|--3--3--3--3--3--3--3--3/-|
--------------------------|------------------------|--------------------------|


                                                                
------------------------|-------------------|------------------|
------------------------|-------------------|------------------|
----6--6--6--6--6--6----|-------------------|------------------|
------------------------|--0----------------|------------------|
Comments