Anathema - Far Away Chords & Tabs

 

Far Away Chords & Tabs

Anathema Chords & Tabs

Version: 1 Type: Bass Tab 0 ratings
1 star 2 stars 3 stars 4 stars 5 stars
comments

Far Away Bass Tab

standard tuning

G-|----------------------------|
D-|----------------------------|
A-|----5--7-------4----3----5--|
E-|-7--------0-----------------|


G-|------------------------------------------------------|
D-|-----2--4--5------5--4---------3--4--5/7-7--5--4--5---|
A-|--------------5---------5--4--------------------------|
E-|-0----------------------------------------------------|


[ Tab from: http://www.guitartabs.cc/tabs/a/anathema/far_away_btab.html ]
G-|------------------------------------------------------------|
D-|-----2--4--5------5--4---------3--4--5----------------------|
A-|--------------5---------5--4------------0-0-0-0-0-0-0-0-2(*)|
E-|-0----------------------------------------------------------|


G-|--------------------------------|
D-|--------------------------------|
A-|-----5--4-----------------------|
E-|-0---------5--------------------|


G-|-2/4-4-------|
D-|-------5-4---|
A-|-----------5-|
E-|-------------|


G-|-2/4-2---2-4-4-2---2-4-4-2---2-4-4-2-----------|
D-|-------5---------5---------5---------5-4-4h5p2-|
A-|-----------------------------------------------|
E-|-----------------------------------------------|
Comments