Anathema - Destiny Is Dead Chords & Tabs

 

Destiny Is Dead Chords & Tabs

Anathema Chords & Tabs

Version: 2 Type: Bass Tab 0 ratings
1 star 2 stars 3 stars 4 stars 5 stars
comments

Destiny Is Dead Bass Tab

The current version of this is so wrong it's not even funny. Enjoy this!  

                            3x                               
G||---2------------|---------------||--5------------|--------------|
D||*---------------|--------------*||---------------|--------------|
A||*---------------|--------------*||---------------|--------------|
E||----------------|---------------||---------------|--------------|


                                                                              
--5------------|--------------|---------------|--------------|---------------|
---------------|--------------|--2------------|--------------|--2------------|
---------------|--------------|---------------|--------------|---------------|
---------------|--------------|---------------|--------------|---------------|


                                                                             
--------------|--5------------|--------------|--5------------|--------------|
--------------|---------------|--------------|---------------|--------------|
--------------|---------------|--------------|---------------|--------------|
--------------|---------------|--------------|---------------|--------------|


                                                                              
---------------|--------------|--1------------|--------------|---------------|
--2------------|--------------|---------------|--------------|--3------------|
---------------|--------------|---------------|--------------|---------------|
---------------|--------------|---------------|--------------|---------------|


                                                                             
--------------|---------------|--------------|---------------|--------------|
--------------|--3------------|--------------|--2------------|--------------|
--------------|---------------|--------------|---------------|--------------|
--------------|---------------|--------------|---------------|--------------|


                                                                              
---------------|--------------|---------------|--------------|---------------|
--2------------|--------------|--3------------|--------------|--3------------|
---------------|--------------|---------------|--------------|---------------|
---------------|--------------|---------------|--------------|---------------|


                                                                             
--------------|---------------|--------------|--1------------|--------------|
--------------|--2------------|--------------|---------------|--------------|
--------------|---------------|--------------|---------------|--------------|
--------------|---------------|--------------|---------------|--------------|


                                                                              
--2------------|--------------|--2------------|--------------|---------------|
---------------|--------------|---------------|--------------|--2------------|
---------------|--------------|---------------|--------------|---------------|
---------------|--------------|---------------|--------------|---------------|

[ Tab from: http://www.guitartabs.cc/tabs/a/anathema/destiny_is_dead_btab_ver_2.html ]
                                                                             
--------------|---------------|--------------|--2------------|--------------|
--------------|--2------------|--------------|---------------|--------------|
--------------|---------------|--------------|---------------|--------------|
--------------|---------------|--------------|---------------|--------------|


                                                                              
--2------------|--------------|---------------|--------------|---------------|
---------------|--------------|--2------------|--------------|--2------------|
---------------|--------------|---------------|--------------|---------------|
---------------|--------------|---------------|--------------|---------------|


                                                                              
--1------------|--2------------|--------------|--5------------|--------------|
---------------|---------------|--------------|---------------|--------------|
---------------|---------------|--------------|---------------|--------------|
---------------|---------------|--------------|---------------|--------------|


                                                                              
---------------|--------------|---------------|--------------|--2------------|
--2------------|--------------|--2------------|--------------|---------------|
---------------|--------------|---------------|--------------|---------------|
---------------|--------------|---------------|--------------|---------------|


                                                                             
--------------|--5------------|--------------|---------------|--------------|
--------------|---------------|--------------|--2------------|--------------|
--------------|---------------|--------------|---------------|--------------|
--------------|---------------|--------------|---------------|--------------|


                                                                              
--1------------|--------------|---------------|--------------|---------------|
---------------|--------------|--3------------|--------------|--3------------|
---------------|--------------|---------------|--------------|---------------|
---------------|--------------|---------------|--------------|---------------|


                                                                             
--------------|---------------|--------------|---------------|--------------|
--------------|--2------------|--------------|--2------------|--------------|
--------------|---------------|--------------|---------------|--------------|
--------------|---------------|--------------|---------------|--------------|


                                                                              
---------------|--------------|---------------|--------------|---------------|
--3------------|--------------|--3------------|--------------|--2------------|
---------------|--------------|---------------|--------------|---------------|
---------------|--------------|---------------|--------------|---------------|


                                              
--------------|--------------|--------------||
--------------|--------------|--------------||
--------------|--------------|--------------||
--------------|--------------|--------------||
Comments