Anathema - Bloodless Chords & Tabs

 

Bloodless Chords & Tabs

Anathema Chords & Tabs

Version: 1 Type: Tab 0 ratings
1 star 2 stars 3 stars 4 stars 5 stars
comments

Bloodless Tab

Artist: Anathema
Song: Bloodless
INTRO/VERSES
    
    INTRO/VERSES 
               "I am bloodless"
    e------------------------------------------------------
    b------------------------------------------------------
    g-----0------0---0--0----------------------------------
    d----0-0----0---0----0---------------------------------
    a-9-9----9-9---9---5---9-------------------------------
    e-7------7-----7---3---7-------------------------------
               "my skin's turnig white"
    e------------------------------------------------------
    b------------------------------------------------------
    g-----0------0---0--0----------------------------------
    d----0-0----0---0----0---------------------------------
    a-9-9----9-9---9---5---9-------------------------------
    e-7------7-----7---3---7-------------------------------
               "I'm losing my mind"
    e------------------------------------------------------
    b------------------------------------------------------
    g-----0------0---0--0----------------------------------
    d----0-0----0---0----0---------------------------------
    a-9-9----9-9---9---5---9-------------------------------
    e-7------7-----7---3---7-------------------------------
               "I constantly lie"
    e------------------------------------------------------
    b------------------------------------------------------
    g-----0------0---0--0----------------------------------
    d----0-0----0---0----0---------------------------------
    a-9-9----9-9---9---5---9-------------------------------
    e-7------7-----7---3---7-------------------------------
              
        chorus: "I'm stuck inside!!!"
    e------------------------------------------------------
    b------------------------------------------------------
    g------------------------------------------------------
    d------------------------------------------------------
    a-9-9-8-9-9-9-10-9-9-9-8-9-10-9-8-9--------------------
    e-7-7-----7-7------7-7---------------------------------
                      Repeat 8 times
    Thats about it for now
[ Tab from: http://www.guitartabs.cc/tabs/a/anathema/bloodless_tab.html ]
Comments