Anarchy Wall - Volcano Chords & Tabs

 

Volcano Chords & Tabs

Anarchy Wall Chords & Tabs

Version: 1 Type: Bass Tab

Volcano Bass Tab

Band page:http://anarchywall.es.tl/


Intro:
G----------------------------------------------------------------------------|
D----------------------------------------------------------------------------|
A----------------------------------------------------------------------------|
E-----------0000333355555555000033335555555500003333555555550000333355555555-|

Verso:
G---------------------------5---3---5--------------------------5---3---5----|
D---------------------------------------------------------------------------|
A------------------755-755-3-3-1-1-3-3----------------755-755-3-3-1-1-3-3---|
E-0--0000-0000-0000-------------------0-0000-0000-0000----------------------|

G---------------------------5---3---5--------------------------5---3---5----|
D---------------------------------------------------------------------------|
A------------------755-755-3-3-1-1-3-3----------------755-755-3-3-1-1-3-----|
E-0--0000-0000-0000-------------------0-0000-0000-0000------------------0---|

Chorus:
G-----------------------------------------------------------------5p3-55-0h5-|
D----------------------------------------------------------------------------|
A-----------------------------------------------------------------3--3--3----|
E-0000333355555555000033335555555500003333555555550000333355555555-----------|

Verso:
G---------------------------5---3---5--------------------------5---3---5----|
D-----------------------------------------------------------------------7---|
A------------------755-755-3-3-1-1-3-3----------------755-755-3-3-1-1-3-77--|
E-0--0000-0000-0000-------------------0-0000-0000-0000------------------0-0-|
[ Tab from: http://www.guitartabs.cc/tabs/a/anarchy_wall/volcano_btab.html ]
Chorus:
G-----------------------------------------------------------------5p3-55-0h5-|
D----------------------------------------------------------------------------|
A-----------------------------------------------------------------3--3--3----|
E-0000333355555555000033335555555500003333555555550000333355555555-----------|

G-----------------------------------------------------------------0h30h503h5-|
D----------------------------------------------------------------------------|
A-----------------------------------------------------------------3----------|
E-0000333355555555000033335555555500003333555555550000333355555555-----------|

Guitar Solo:
G-------------------------------------77777755557p5-5p3----------------------|
D----------------------------------------------------------------------------|
A--------------7---7---7---7---7---7-55-5-5---------------7---7---7---7---7--|
E:-00000000-0-000-000-000-000-000-000------------------0-000-000-000-000-000-|

G-----7p5-7p5-7p5-7p5-0h3p20h5p40h7p60h9p8----------------------------------|
D---------------------------------------------------------------------------|
A--7-5---5---5---5----------------------------------------------------------|
E-000-------------------------------------0-000-000-000-000-000-000-000-000-|

G------------9-9-9-9-9-9-9-9-9-9-9-9-9-9-9-9-9-9-9-9-9-9-9-9-9-9-9-9-9-9-9-9-|
D----------------------------------------------------------------------------|
A-----------7-7-7-7-7-7-7-7-7-7-7-7-7-7-7-7-7-7-7-7-7-7-7-7-7-7-7-7-7-7-7-7--|
E000-000-00-0000000000000000000000000000000000000000000000000000000000000000-|

Chorus:
G-----------------------------------------------------------------5p3-55-0h5-|
D----------------------------------------------------------------------------|
A-----------------------------------------------------------------3--3--3----|
E-0000333355555555000033335555555500003333555555550000333355555555-----------|

G-----------------------------------------------------------------0h30h503h5-|
D----------------------------------------------------------------------------|
A-----------------------------------------------------------------3----------|
E-0000333355555555000033335555555500003333555555550000333355555555-----------|