Anal Moose Ranch - Spoons Chords & Tabs

 

Spoons Chords & Tabs

Anal Moose Ranch Chords & Tabs

Version: 1 Type: Tab 0 ratings
1 star 2 stars 3 stars 4 stars 5 stars
comments

Spoons Tab

TITLE: SPOONS
ARTIST: ANAL MOOSE RANCH
ALBUM: GOD THREW A SICKIE TODAY
TABBED BY DEXTER HETFIELD
take_off_your_pants_and_jacket_now@hotmail.com

MAIN RIFF
1)----------------|
2)----------------|
3)----------------|
4)--3-3---4-------|
5)--3-3---4-------|
6)--1-1---2-------|
[ Tab from: http://www.guitartabs.cc/tabs/a/anal_moose_ranch/spoons_tab.html ]
"SOLO"
1)-------------------------------|
2)-------------------------------|
3)--5-/12\-4-/12\-3-/12----------|
4)--5-/12\-4-/12\-3-/12--3-3-4---|
5)--3-/10\-2-/10\-1-/10--3-3-4---|
6)-----------------------1-1-2---|

OUTRO IS TOTALLY UNTABBABLE, EVEN BY DANNY AND HE PLAYED IT!

ANY COMMENTS OR CORRECTIONS:
take_off_your_pants_and_jacket_now@hotmail.com
Comments